Que Me Quedes Tu, Shakira (tablatura) (ver 4)

Autor: Anónimo | 26370 visualizaciones



Esta es una mejora de los riffs de esta cancion,pues no se 
incluyeron completos en transcripciones anteriores...

El primero es el riff del principio que suena como a chino 
cuando se repite al final de la cancion:

e|--3-6-3---3-------------------------------|
A|--------6---6-3-6-3-------3-6-3--6-6-4-3-1|
D|--------------------5-3-5-----------------|
G|------------------------------------------|
B|------------------------------------------|
E|------------------------------------------|

e|--3-6-3---3-------------------------------|
A|--------6---6-3-6-3-------3-6-3--6-6-4-3-6|
D|--------------------5-3-5-----------------|
G|------------------------------------------|
B|------------------------------------------|
E|------------------------------------------|

e|--8-8-6-8-10-6-5-6---6-6-5-3-1------------|
A|------------------------------------------|
D|------------------------------------------|
G|------------------------------------------|
B|------------------------------------------|
E|------------------------------------------|

e|--8-8-6-8-10-6-5-6---6-11-6-6-------------|
A|------------------------------------------|
D|------------------------------------------|
G|------------------------------------------|
B|------------------------------------------|
E|------------------------------------------|

Bueno,a continuacion esta mi version del segundo riff al
principio de la cancion:


e|-------------------------------------------------|
A|-------------------------------------------------|
D|--0-0-3-0----------------------------------------|
G|----------0-0-3-0--0-2-3-3-3-3-2-0---------------|
B|-----------------------------------3-3-7-3--3-7-3|

El 3-7-3 del final se toca la segunda vez.

ESO ES TODO!
ESPERO K LO HAYAN ENTENDIDO Y LES SIRVA DE ALGO Y COMO NO
ESCRIBANME A MI CORREO XA KUALKIER COSA,DUDA,HISTORIA,SUEÑO,
MENTIRA O LO K SEA, O AÑADIRME AL MESSENGER!! UNA COSITA K
ME SORPRENDE ES K EN EL ATAME NO PARECEN COLABORAR MUXAS
MUJERES...ANIMO TIAS K EL MUNDO ES DE LAS CHICAS!!
CIAO PEÑA

Fuente original: LaCuerda
Colaborador original: sora [[email protected]]





Calificar esta versión:
Aviso: Este fichero es trabajo propio de su transcriptor y representa su interpretación personal de la canción. El material contenido en esta página es para exclusivo uso privado, por lo que se prohibe su reproducción o retransmisión, así como su uso para fines comerciales.
Más versiones de Que Me Quedes Tu, Shakira
Que Me Quedes Tu
acordes
Que Me Quedes Tu (ver 2)
acordes
Que Me Quedes Tu
tablatura
Que Me Quedes Tu (ver 2)
tablatura
Que Me Quedes Tu (ver 3)
tablatura
Que Me Quedes Tu (ver 4)
tablatura
Descubre más canciones de Shakira