Que Me Quedes Tu, Shakira (tablatura) (ver 2)

Autor: Anónimo | 42997 visualizaciones



it starts out with a sitar i think and then this guitar part
e---------------------------------------------------------------------------------------------
B---------------------------------------------------------------------------------------------
G---------------------------------------------------------------------------------------------
D---------------------------------------------------------------------------------------------
A---------6-----------1-----0--1-1-1-1-1-0--------0---x2--------------------------------------
E---8--8-----8---3-3-----3------------------3-1-1---1-----------------------------------------

then she starts singing and there is pretty much silence but little guitar parts here and there
e--------------8----7---5----8---6--10--------------------------------------------------------
B--------------10---8---6----10--8--11--------------------------------------------------------
G--10/12--------------------------------------------------------------------------------------
D---------------------------------------------------------------------------------------------
A---------------------------------------------------------------------------------------------
E---------------------------------------------------------------------------------------------

then drums start and there are these little riffs  pm................................
e----------------------------------8----6---5--3----------------------------------------------
B----------------------------------10---8---6--4----------------------------------------------
G----------------------------------------------------7-7--5-5--7-7--5-5--7-7--5-5--7-7--5-5---
D---------------------------------------------------------------------------------------------
A---3---1--0--------3--1--0--3----------------------------------------------------------------
E-------------3-------------------------------------------------------------------------------


then the chorus is a bunch of stuff palm muted u play it 2 times all the way through and then 
leave off the last part the last time
e---------------------------------------------------------------------------------------------
B---------------------------------------------------------------------------------------------
G-7-7--5-5--3-3--5-5--7-7--5-5--3-3--5-5--7-7--5-5--3-3--5-5--8-8--7-7--5-5--3-3--x3----------
D---------------------------------------------------------------------------------------------
A---------------------------------------------------------------------------------------------
E---------------------------------------------------------------------------------------------

then u play this begining riff again
e---------------------------------------------------------------------------------------------
B---------------------------------------------------------------------------------------------
G---------------------------------------------------------------------------------------------
D---------------------------------------------------------------------------------------------
A---------6-----------1-----0--1-1-1-1-1-0--------0---x2--------------------------------------
E---8--8-----8---3-3-----3------------------3-1-1---1-----------------------------------------

then it is anoter verse where it is just silence a few chords from above are strummed very 
lightly and then this again        palm muted
e---------------------------------------------------------------------------------------------
B---------------------------------------------------------------------------------------------
G----------------------------------7-7--5-5--7-7--5-5--7-7--5-5--7-7--5-5---------------------
D---------------------------------------------------------------------------------------------
A---3---1--0--------3--1--0--3----------------------------------------------------------------
E-------------3-------------------------------------------------------------------------------

then the chorus once more palm muted
e---------------------------------------------------------------------------------------------
B---------------------------------------------------------------------------------------------
G-7-7--5-5--3-3--5-5--7-7--5-5--3-3--5-5--7-7--5-5--3-3--5-5--8-8--7-7--5-5--3-3--x4----------
D---------------------------------------------------------------------------------------------
A---------------------------------------------------------------------------------------------
E---------------------------------------------------------------------------------------------

then there is a sitar solo with these chords played in between parts and there is a little 
guitar solo also
e--8----6---5---5-----------8---8---6--8---6--10--10--6--5--3--5--6---------------------------
B--10---8---6---6-x2--------10--10--8--10--8--8---11--8--6--4--6--8---------------------------
G---------------------------------------------------------------------------------------------
D---------------------------------------------------------------------------------------------
A---------------------------------------------------------------------------------------------
E---------------------------------------------------------------------------------------------
                                       palm mute
e-8---8---6--8---6--10--10--6--5--3-----------------------------------------------------------
B-10--10--8--10--8--8---11--8--6--4-----------------------------------------------------------
G--------------------------------------------7-7--5-5--7-7--5-5--7-7--5-5--7-7--5-5-----------
D---------------------------------------------------------------------------------------------
A---------------------------------------------------------------------------------------------
E---------------------------------------------------------------------------------------------

then the chorus again
e---------------------------------------------------------------------------------------------
B---------------------------------------------------------------------------------------------
G-7-7--5-5--3-3--5-5--7-7--5-5--3-3--5-5--7-7--5-5--3-3--5-5--8-8--7-7--5-5--3-3--x3----------
D---------------------------------------------------------------------------------------------
A---------------------------------------------------------------------------------------------
E---------------------------------------------------------------------------------------------

and end on
e---------------------------------------------------------------------------------------------
B------------8--------------------------------------------------------------------------------
G-------7-------------------------------------------------------------------------------------
D---5-----------------------------------------------------------------------------------------
A---------------------------------------------------------------------------------------------
E---------------------------------------------------------------------------------------------

Fuente original: LaCuerda
Colaborador original: Chris Suiter [[email protected] ]





Calificar esta versión:
Aviso: Este fichero es trabajo propio de su transcriptor y representa su interpretación personal de la canción. El material contenido en esta página es para exclusivo uso privado, por lo que se prohibe su reproducción o retransmisión, así como su uso para fines comerciales.
Más versiones de Que Me Quedes Tu, Shakira
Que Me Quedes Tu
acordes
Que Me Quedes Tu (ver 2)
acordes
Que Me Quedes Tu
tablatura
Que Me Quedes Tu (ver 2)
tablatura
Que Me Quedes Tu (ver 3)
tablatura
Que Me Quedes Tu (ver 4)
tablatura
Descubre más canciones de Shakira