Que Me Quedes Tu, Shakira (tablatura) (ver 3)

Autor: Anónimo | 30762 visualizaciones



E||3--6--3-----3----------|----------------------||
B||---------6-----6--3--6-|-3-----------3--6--3--||
G||-----------------------|----5--3--5-----------||
D||-----------------------|----------------------||
A||-----------------------|----------------------||
E||-----------------------|----------------------||


E||---------------------------------------------||
B||---------------------------------------------||
G||---------------------------------------------||
D||---------------------------------------------||
A||-----3---0-----3-----------------------------||
E||-5-5---5---5-5---5-5-7-8-8-8-8-7-5-3-3-6-3---||

E||---------------------------------------------||
B||---------------------------------------------||
G||---------------------------------------------||
D||---------------------------------------------||
A||-----3---0-----3-----------------------------||
E||-5-5---5---5-5---5-5-7-8-8-8-8-7-5-3-3-6-3---||


F                       Cm 
Que se arruinen los canales de noticias

Gm                    A#
Con lo mucho que odio la television

F                     Cm
Que se vuelvan anticuadas las sonrisas

Gm                        A#
Y que se extingan todas las puestas de sol

A#         F          Cm         Gm
Que se supriman las doctrinas y deberes

A#         F           Cm          Gm
Que se terminen las películas de accion

A#          F          Cm          Gm
Que se destruyan en el mundo los placeres

A#           F           Cm           Gm
Y que se escriba hoy una ultima canción

CORO

                   A#
Pero que me quedes tu

            F
Me quede tu abrazo

              Gm              D
Y el beso que inventas cada dia

             A#
Que me quede aquí 

               F
Después del ocaso

             Gm          D
Para siempre tu melancolia

      A#     F     Cm       D
Porque yo yo si si que dependo de ti

            A#                F F# Gm
Si me quedas tu, me queda la vida.

F                  Cm  
Que desaparezcan todos los vecinos

Gm                       A#
Y se coman las sobras de mi inocencia

F                   Cm   
Que se vallan uno a uno los amigos

Gm                          A#
Y acribillen mi pedazo de conciencia

A#           F           Cm            Gm
Que se consuman las palabras en los labios

A#          F          Cm           Gm
Que contaminen toda el agua del planeta

A#       F            Cm          Gm    
O que renuncien los filántropos y sabios

A#         F            Gm          Gm
Y que se muera hoy hasta el ultimo poeta

CORO

                   A#
Pero que me quedes tu

            F
Me quede tu abrazo

              Gm              D
Y el beso que inventas cada dia

             A#
Que me quede aquí 

               F
Después del ocaso

             Gm          D
Para siempre tu melancolia

      A#     F     Cm       D
Porque yo yo si si que dependo de ti

            A#                F F# Gm
Si me quedas tu, me queda la vida.

E||3--6--3-----3----------|----------------------||
B||---------6-----6--3--6-|-3-----------3--6--3--||
G||-----------------------|----5--3--5-----------||
D||-----------------------|----------------------||
A||-----------------------|----------------------||
E||-----------------------|----------------------||

CORO

Pero que me quedes tu.....





PD: Esta cancion se la dedico a to2 mis amigos

Fuente original: LaCuerda
Colaborador original: Diego Hernandez Meruane [[email protected]]





Calificar esta versión:
Aviso: Este fichero es trabajo propio de su transcriptor y representa su interpretación personal de la canción. El material contenido en esta página es para exclusivo uso privado, por lo que se prohibe su reproducción o retransmisión, así como su uso para fines comerciales.
Más versiones de Que Me Quedes Tu, Shakira
Que Me Quedes Tu
acordes
Que Me Quedes Tu (ver 2)
acordes
Que Me Quedes Tu
tablatura
Que Me Quedes Tu (ver 2)
tablatura
Que Me Quedes Tu (ver 3)
tablatura
Que Me Quedes Tu (ver 4)
tablatura
Descubre más canciones de Shakira