Moscas En La Casa, Shakira (tablatura) (ver 3)

Autor: Anónimo | 33922 visualizaciones



Aquí les envió el verdadero intro y acordes de esta canción en versión unplugged
.......el intro lo he revisado por varias horas y me parece perfecto...... además
quiero dedicársela a una persona muy especial que es mi mejor amiga...... 
para ti.. GINA.... saludos desde PERU....

INTRO:  
 
e|------------------------------------------------------------8-10*8-8-------10-|
B|-----8~--8-10*8-8------------------------------------10--10----------10/12----|
G|-7/9---9----------9-9~-/10-9-7------------------------------------------------|
D|-------------------------------10-9-7--------------7--------------------------|
A|---------------------------------------10-10-87-5----------------------------|
E|------------------------------------------------------------------------------|

 
e|--10-10----8------------------------------------------------------------------|
B|--------10---10/12~--5-----5-3-----3-1-----1-0------------8~--86-5-8-/10-----|
G|-------------------------5-------4-------2--------5-7-7/9---9-------------9-9-|
D|-----------------------5-------5-------3--------5-----------------------------|
A|------------------------------------------------------------------------------|
E|------------------------------------------------------------------------------|

 
e|-----------------------------------------------------------------8*7-8/10-10--|
B|---------------------------------------3---3-5-6-8-8-/10-10-108--------------|
G|--9/109-7-7*9*7-------------------4*5---5------------------------------------|
D|-----------------10-9-7--------3*5--------------------------------------------|
A|------------------------10-8--------------------------------------------------|
E|------------------------------------------------------------------------------|
 
 


C                         Am					      F
Mis días sin ti son tan oscuros tan largos tan grises mis días sin ti

                          G			 		      C
mis días sin ti son tan absurdos tan agrios tan duros mis días sin ti

C                          Am					   F
mis días sin ti no tienen noches si alguna parece es inútil dormir

                          G				            Am
mis días sin ti son un derroche las horas no tienen principio ni fin
 

 
CORO :
    			   Fmaj7		Dm
	Tan faltos de aire tan llenos de nada

                                          G		       C
	chatarra inservible basura en el suelo moscas en la casa
 
C-Am-F-G
 

C                            Am					F
Mis días sin ti son como un cielo sin lunas plateadas ni rastros del sol

                             G				          Am
mis días sin ti son solo un eco que siempre repite la misma canción
 

REP. CORO
 
 
Em                                 Am
Pateando las piedras aun sigo esperando que vuelvas conmigo

D                                    G
aun sigo buscando en las caras de ancianos pedazos de niño

Em                               Am
Trazando motivos que me hagan creer que aun me encuentro con vida

D                                 G                   C		  Am
mordiendo mis uñas ahogándome en llanto extrañándote tanto mis días sin ti

            F		      G				   C	    Am       F  G
mis días sin ti mis días sin ti como duelen los días sin ti.. sin ti.. sin ti.. 





            E  A  D  G  B  e
Fmaj7       0  3  3  2  1  0


* = LIGADO
/ = DESLIZAR
~ = vivrato

DUDAS O COMENTARIOS..... escríbanme a [email protected]

Fuente original: LaCuerda
Colaborador original: juan luis pacheco chambi [[email protected]]





Calificar esta versión:
Aviso: Este fichero es trabajo propio de su transcriptor y representa su interpretación personal de la canción. El material contenido en esta página es para exclusivo uso privado, por lo que se prohibe su reproducción o retransmisión, así como su uso para fines comerciales.
Más versiones de Moscas En La Casa, Shakira
Moscas En La Casa
acordes
Moscas En La Casa
tablatura
Moscas En La Casa (ver 2)
tablatura
Moscas En La Casa (ver 3)
tablatura
Moscas En La Casa
bajo
Descubre más canciones de Shakira