Moscas En La Casa, Shakira (tablatura)

Autor: Anónimo | 34785 visualizaciones



Soy un principiante en la guitarra y solo dispongo de una criolla.
 En este tema usa un SLIDE creo, pero saque los punteos limpios, alguien que pueda sugerir
 un cambio será bien recibido a: [email protected]


 Comienza abriendo con un acorde que no se como se llama pero suena como esto:

 e---0------
 B---1------
 G---0------
 D---2------
 A---2------
 E---0------

 Despues el punteo comienza asi:


 e----3--5--3----0--1---------------------------------------------------------------------
 B--------------------5-3-1-0----------------------1---1-3-1------------------------------
 G----------------------------2----0-0---------2-2-----------2--4--2--4-------------------
 D-------------------------------------3-2-0-3--------------------------------------------
 A----------------------------------------------------------------------------------------
 E----------------------------------------------------------------------------------------


 Ahora viene un punteo cortito de guitarra acustica (no lo saqué) y despues
 continua asi:


 e----------3----3-3-1-0---3-1-0----1---------------------------------1-3-5--5-5-3---8-7-10-
 B------3-5---------------------------5-3-1-0---------------------3-5-----------------------
 G--0-5---------------------------------------2-0-----------2-4-5---------------------------
 D------------------------------------------------5-3---3-5---------------------------------
 A------------------------------------------------------------------------------------------
 E------------------------------------------------------------------------------------------


 Ya saben, sugerencias a: [email protected] (Marcelo A. Mattar)

Fuente original: LaCuerda
Colaborador original: Marcelo Alejandro Mattar [[email protected]]





Calificar esta versión:
Aviso: Este fichero es trabajo propio de su transcriptor y representa su interpretación personal de la canción. El material contenido en esta página es para exclusivo uso privado, por lo que se prohibe su reproducción o retransmisión, así como su uso para fines comerciales.
Más versiones de Moscas En La Casa, Shakira
Moscas En La Casa
acordes
Moscas En La Casa
tablatura
Moscas En La Casa (ver 2)
tablatura
Moscas En La Casa (ver 3)
tablatura
Moscas En La Casa
bajo
Descubre más canciones de Shakira