Moscas En La Casa, Shakira (tablatura) (ver 2)

Autor: Anónimo | 35943 visualizaciones



VERSION DEL UNPLUGGED
  
INTRO:  C Em9 Am F G

REQUINTO DE INTRO

E---------------------------------------------------------------------------------
A-----------------------------------------10-10-8-8s-7----------------------------
D---------------------------------10-9-7-------------7----------------------------
G--7s-9--------------9-9--10-9s-7-------------------------------------------------
B-------8-fa-8-10h-8------------------------------------10--10--------------------
E---------------------------------------------------------------------------------

----------------------------------------------------------------------------------
----------------------------------------------------------------------------------
-----------------------------------------------5-----------5----------3-----------
-------------------------------------------------5-----------4----------2------b5-
------------10s-12----------10---10s-12-----5------5---3-------3---1------1-------
---8h-10-8---------10--10-8----8--------------------------------------------------


SEGUNDO REQUINTO DEL INTRO

E-----------------------------------------------------------------------------------------
A---------------------------------------------------------8-------------------------------
D---5---------------------------------------------10p-9-7---3h-5------------(rapido)------
G-----5s-7-9--------------------9-9-10s-9s-7h10-7---------------4h-5-------5--------------
B------------8fa-8-8s-6-5-8s-10--------------------------------------3-5-3----------------
E-----------------------------------------------------------------------------------------

-------------------------------------------
-------------------------------------------
-------------------------------------------
-------------------------------------------
-6s-8-8-8-8s-10-10-10s-8-------------------
-------------------------8s-7-8s-10--------


RIFF

E---------3-0--------
A---3-2-0------------
D--------------------

      C               Em9            Am
	Mis días sin ti son tan oscuros
                                            F
	tan largos, tan grises mis días sin ti
                                   G
	mis días sin ti son tan absurdos
                                          C
	tan agrios, tan duros mis días sin ti.

      C               Em9       Am
	Mis días sin ti no tienen noches
                                      F
	si alguna parece es inútil dormir
                                  G
	mis días sin ti son un derroche
                                         Am
	las horas no tienen principio ni fin.



	CORO
    Am
	Tan faltos de aire
    Fmaj7
	tan llenos de nada
    Dm                                      G
	chatarra inservible, basura en el suelo
                      C
	moscas en la casa.


	C Am F G



      C              Em9               Am
	Mis días sin ti son como un cielo
                                          F
	sin lunas plateadas ni rastros del sol
                                    G
	mis días sin ti son solo un eco
                                      Am
	que siempre repite la misma canción

CORO
    Am
	Tan faltos de aire
    Fmaj7
	tan llenos de nada
    Dm                                      G
	chatarra inservible, basura en el suelo
                      C  RIFF               
	moscas en la casa.


      Em                                    Am
	Pateando las piedras aun sigo esperando que vuelvas conmigo
      D                                       G
	aun sigo buscando en las caras de ancianos pedazos de niño.

      Em                                 Am
	Trazando motivos que me hagan creer que aun me encuentro con vida
      D                                      G                    C
	mordiendo mis uñas, ahogándome en llanto, ... extrañándote tanto,
                    Am               F
	mis días sin ti, mis días sin ti,
                    G                           C
	mis días sin ti como duelen los días sin ti
           Am      F       G
	sin ti, sin ti, sin ti.


ACORDES

Fmaj7 - 033210
Em9   - 022030
COMENTARIOS O SUGERENCIAS..........MANDEN UN CORREO
CHAO.....................

Fuente original: LaCuerda
Colaborador original: VICTOR ORTIZ ARANGO [[email protected]]





Calificar esta versión:
Aviso: Este fichero es trabajo propio de su transcriptor y representa su interpretación personal de la canción. El material contenido en esta página es para exclusivo uso privado, por lo que se prohibe su reproducción o retransmisión, así como su uso para fines comerciales.
Más versiones de Moscas En La Casa, Shakira
Moscas En La Casa
acordes
Moscas En La Casa
tablatura
Moscas En La Casa (ver 2)
tablatura
Moscas En La Casa (ver 3)
tablatura
Moscas En La Casa
bajo
Descubre más canciones de Shakira