Rock You Like A Hurricane, Scorpions (tablatura) (ver 4)

Autor: jonathan13 | 23781 visualizaciones



INTRO(X8)Y ESTRIBILLO (X4)

e----------------------
B----------------------
D-7-7-7.-0-0-3-3-3-5-5-
G-7-7-7.-0-0-3-3-3-5-5-
A----------------------
E----------------------


base:

e-----------------------------------
B-----------------------------------
G-3-3-5.-3-3-3-5-4.-3-3-5.-3-3-3-4.-
D-3-3-5.-3-3-3-5-4.-3-3-5.-3-3-3-4.-
A-----------------------------------
E-----------------------------------

Intro x8

base:

It's early morning
The sun comes out
Last night was shaking
And pretty loud

My cat is purring
And scratches my skin
so what is wrong
With another sin

The bitch is hungry
She needs to tell
So give her inches
And feed her well

More days to come
New places to go
I've got to leave
It's time for a show

Intro x4

Here I am,     rock you like a hurricane
Here I am,     rock you like a hurricane





Comentarios del colaborador: si tienen alguna duda, chequeen la tablatura con la cancion para obtener el ritmo o me mandan un mail a ngamer_95@homtial.com gracias

Calificar esta versión:
Aviso: Este fichero es trabajo propio de su transcriptor y representa su interpretación personal de la canción. El material contenido en esta página es para exclusivo uso privado, por lo que se prohibe su reproducción o retransmisión, así como su uso para fines comerciales.
Más versiones de Rock You Like A Hurricane, Scorpions
Rock You Like A Hurricane
acordes
Rock You Like A Hurricane (ver 2)
acordes
Rock You Like A Hurricane
tablatura
Rock You Like A Hurricane (ver 2)
tablatura
Rock You Like A Hurricane (ver 3)
tablatura
Rock You Like A Hurricane (ver 4)
tablatura
Descubre más canciones de Scorpions