Rock You Like A Hurricane, Scorpions (tablatura) (ver 3)

Autor: liverpool beats | 46169 visualizaciones



Este es solo el acompañamiento
de toda la canción.


Intro y Coros.
E------------3-3--5-5--------I
A-----7-7-7--5-5--7-7-3-5-5--I
D-----9-9-9--5-5--7-7-5-7-7--I  .
g-----9-9-9-----------5-7-7--I  .
b----------------------------I
e----------------------------I

Se toca con Palm Mute
Versos.
E-------------------------------------I
A---3-3-3--7-7-7-7-7--3-3-3--7-7-5-5--I
D---5-5-5--9-9-9-9-9--5-5-5--9-9-7-7--I  .
g---5-5-5--9-9-9-9-9--5-5-5--9-9-7-7--I  .
b-------------------------------------I
e-------------------------------------I





Calificar esta versión:
Aviso: Este fichero es trabajo propio de su transcriptor y representa su interpretación personal de la canción. El material contenido en esta página es para exclusivo uso privado, por lo que se prohibe su reproducción o retransmisión, así como su uso para fines comerciales.
Más versiones de Rock You Like A Hurricane, Scorpions
Rock You Like A Hurricane
acordes
Rock You Like A Hurricane (ver 2)
acordes
Rock You Like A Hurricane
tablatura
Rock You Like A Hurricane (ver 2)
tablatura
Rock You Like A Hurricane (ver 3)
tablatura
Rock You Like A Hurricane (ver 4)
tablatura
Descubre más canciones de Scorpions