Rock You Like A Hurricane, Scorpions (tablatura) (ver 2)

Autor: sometaria-chelo | 28770 visualizaciones



I tell you in advance that it's only 90% correct.
I accept requests for every scorpions songs and others too, I also take coplaints, compliments, corrections and blunt objects, just send it over to: Drunkirishfish@yahoo.com

Chorus and intro Chord Progression:

  E5      G5    A5  C5 D5   
------------------------------------------------------------------------------
------------------------------------------------------------------------------
-9-9-9--------------5--7-7----------------------------------------------------
-9-9-9---5-5---7-7--5--7-7----------------------------------------------------
-7-7-7---5-5---7-7--3--5-5----------------------------------------------------
---------3-3---5-5------------------------------------------------------------


Intro Solo:                                                   

-00000-00-00-0000-00000-00-00-0000-0-0-0-0-0--0-0--0-0--0-0-0-0---------------
-55555-55-55-5555-55555-55-55-5555-1212121212-1212-1212-12121212--------------
------------------------------------------------------------------------------
------------------------------------------------------------------------------
------------------------------------------------------------------------------
------------------------------------------------------------------------------
                                                                              

-0-0-0-0-0--0-0---------------------------------------------------------------
-1212121212-1212-11h12p11p9---------------------------------------------------
---------------------------12p11p9--------------------------------------------
----------------------------------12p0----------------------------------------
------------------------------------------------------------------------------
------------------------------------------------------------------------------


----------------15-14h15p14p12----------15-------17b18r17-15-17-15------------
-------15----------------------15-15p17----15b17------------------------------
-14b16----14b16---------------------------------------------------------------
------------------------------------------------------------------------------
------------------------------------------------------------------------------
------------------------------------------------------------------------------
                                                                              

-20b22-20b22-20b2220b22-17201917151917151417151412/20-12-------12-------12----
---------------------------------------------------------15b17----15b17-------
------------------------------------------------------------------------------
------------------------------------------------------------------------------
------------------------------------------------------------------------------
------------------------------------------------------------------------------
                                                                              

------12-----12-----12-----12-1512--------------------------------------------
-15b17--15b17--15b17--15b17-------1512----------------------------------------
--------------------------------------151412----------------------------------
--------------------------------------------1412------------------------------
------------------------------------------------141312------------------------
------------------------------------------------------1512/10-----------------

Verse Chord Progression:                                                                              

------------------------------------------------------------------------------
------------------------------------------------------------------------------
------------------------------------------------------------------------------
-9-9-9--7-7--7-7-7-9--5-5-5--7-7--7-9-7---------------------------------------
-7-7-7--5-5--5-5-5-7--3-3-3--5-5--5-7-5---------------------------------------
------------------------------------------------------------------------------


Main solo:                                                                              
                                                                              

-12----12-17b18r17p15---------------------------------------------------------
-14b17----------------17------------------------------------------------------
-------------------------14b16------------------------------------------------
------------------------------------------------------------------------------
------------------------------------------------------------------------------
------------------------------------------------------------------------------
                                                                              

------------------------------------------------------------------------------
-12tr15vvvvvvvvv--t17/---t1-7/---t17/-t17/-t1-7/-t17/-t17/--t17/-t17/---------
------------------------------------------------------------------------------
------------------------------------------------------------------------------
------------------------------------------------------------------------------
------------------------------------------------------------------------------
      just listen  to  the  song  and you'll  understand...                   

---------------------------------------------------15-17b19-19------17--------
-vvvvvvvvv---------------------------------t15-t17-------------17b19----------
---------------------------t14-t16-t14-t16------------------------------------
-------------------t14-t17----------------------------------------------------
-----------t14-t17------------------------------------------------------------
------------------------------------------------------------------------------
                                                                              

------------------------------------------------------------------------------
-19r17p15171515-15------------15------------15--------------------------------
----------------14b16r14p12---14b16r14p12---14b16r14p12-----------------------
---------------------------14------------14-------------14--5^-7^-7^-7^-5^----
------------------------------------------------------------------------------
------------------------------------------------------------------------------
                                                                              

------------------------------------------------12h15p12------15h17p15--------
---5h8p5----8h10p8-----10h13p10------12h15p12/15---------15/17----------------
-/7------7/9-------9/12---------12/14-----------------------------------------
------------------------------------------------------------------------------
------------------------------------------------------------------------------
------------------------------------------------------------------------------
                                                                              

------17h19p17------17h20p17-------22----------------------------1517-19------
-17/20---------20/22---------22b24----22b24-----------------1517--------------
------------------------------------------------------141516------------------
--------------------------------------------------1417------------------------
---------------------------------------------1417-----------------------------
------------------------------------------------------------------------------
                                                                              

-22-22b24----------17-19-20-22-22b24-24-24-24---------------------------------
----------17-19-20------------------------------------------------------------
------------------------------------------------------------------------------
------------------------------------------------------------------------------
------------------------------------------------------------------------------
------------------------------------------------------------------------------
                                                                              

-19222019172019171517h18p17p1514----------------------------------------------
--------------------------------17-12----12----------12----12----12-----------
--------------------------------------14----14p12-------14----14----14p12-----
--------------------------------------------------14----------------------14--
------------------------------------------------------------------------------
------------------------------------------------------------------------------
                                                                              

------------------------------------------------------------------------------
-12----12---------------------------------------------------------------------
----14----14----------------------12^-14^-14^---------------------------------
-------------------------------14---------------------------------------------
-------------12h14p12--15-----------------------------------------------------
---------------------15--15p12------------------------------------------------





Calificar esta versión:
Aviso: Este fichero es trabajo propio de su transcriptor y representa su interpretación personal de la canción. El material contenido en esta página es para exclusivo uso privado, por lo que se prohibe su reproducción o retransmisión, así como su uso para fines comerciales.
Más versiones de Rock You Like A Hurricane, Scorpions
Rock You Like A Hurricane
acordes
Rock You Like A Hurricane (ver 2)
acordes
Rock You Like A Hurricane
tablatura
Rock You Like A Hurricane (ver 2)
tablatura
Rock You Like A Hurricane (ver 3)
tablatura
Rock You Like A Hurricane (ver 4)
tablatura
Descubre más canciones de Scorpions