La Bamba, Ritchie Valens (tablatura) (ver 3)

Autor: guitar1 | 40337 visualizaciones



Espero que les guste, es la versión original de la película
es mi primer aporte ya que siempre bajo material ahora decisidi
aportar desde michoacan, mexico, morelia, guadalajara.
para el mundo
cualquier consulta o comentario mandar un mensaje
a metal_cradle_of_filth@hotmail.com

Intro
e-----------------------------------------------
B-----------------------------------------------
G---------------0------2--0---------------------
D------------2------3---------------------------
A-----0-2-3-------------------------------------
E--3--------------------------------------------

e------------------------------------------------
B------------------------------------------------
G--------------------------------0------2---0----
D--------0----3--3--2--0------2------3-----------
A-----2--------------------3---------------------
E--3---------------------------------------------



Intro C- F- G 2 veces y luego F- C ?F-G
G              C     F - G
Para bailar la bamba
               C     F      G
Para bailar la bamba se necesita
            C        F  G
Una poca de gracia
            C      F        G
Una poca de gracia pa mi pa ti
            C      F - G
ay arriba y arriba
            C          F  G           C
Ay arriba y arriba por ti sere por ti sere
    F  G
por ti sere


Yo no soy marinero
Yo no soy marinero soy capitan
Soy capitan
Soy capitan

Bamba,Bamba
Bamba,Bamba
Bamba,Bamba
Bamba,Bamba

Para bailar la bamba
Para bailar la bamba se necesita
Una poca de gracia
Una poca de gracia pa mi pa tia
ay arriba y arriba

1er SOLO

Aquí empieza el solo


E-------------------|-------------------|------------------------|
B-------------------|-------------------|---------------------0--|
G-0-0-0-0-0-0-0-0-0-|0-0-0-0-0-0-0-0-0-0-0-0-0-0-0-0-0-0-0-2-----|
D-------------------|-------------------|------------------------|
A-------------------|-------------------|------------------------|
E-------------------|-------------------|------------------------|


E------------------------------|----------------------------|
B--0-1----0-----0--------------|----------------------------|
G------------2-------2----0----|--0-2--0-----0--------0-----|
D------------------------------|----------3-----2--3-----2--|
A------------------------------|----------------------------|
E------------------------------|----------------------------|



E--------------------------|----------------------------|
B--------------------------|----------------------------|
G--------------------------|----------------------------|
D--3--0--2-----0-----------|----------------------------|
A-----------3-----2--3--0--|--2-----0----------0--2--3--|
E--------------------------|-----3-----3-1--3-----------|



E--------------------------|--0--1-----0--1-----0--1--|-3-3-3-3-3-3-3-3-3-|
B-----------------0--1--3--|--------3--------3--------|-------------------|
G-----------0--2-----------|--------------------------|-------------------|
D--0--2--3-----------------|--------------------------|-------------------|
A--------------------------|--------------------------|-------------------|
E--------------------------|--------------------------|-------------------|



E-3-3-3-3-3-3-3-12------5--|--3?5?3---1--1?3?1--0--1-----0-----|
B--------------------------|--------------------------3-----1--|
G--------------------------|-----------------------------------|
D--------------------------|-----------------------------------|
A--------------------------|-----------------------------------|
E--------------------------|-----------------------------------|




E-----0-------------------------|----------------------------|
B--3-----1--3?0?1--0----0-------|----------------------------|
G----------------------2-----0--|--2--0----0--------0--------|
D-------------------------------|-------3-----2--3-----2--3--|
A-------------------------------|----------------------------|
E-------------------------------|----------------------------|




E---------------------------------|------------------------------------|
B---------------------------------|------------------------------------|
G--------0---------0?2--0-4--0-0-|--5-0-0-0-0-7-0-0-0-4-0-0-0-7-0-0-0--|
D--0--------2---3-----------------|------------------------------------|
A-----3---------------------------|------------------------------------|
E---------------------------------|------------------------------------|






E---------------------------------|-----------------------------|
B---------------------------------|-----------------------------|
G--4-0-0-0-9-0-0-0-7-0-0-0-9--10--|--10-12--12-12-12-12-12-12-12|
D---------------------------------|-----------------------------|
A---------------------------------|-----------------------------|
E---------------------------------|-----------------------------|


E------------------------------------------|
B------------------------------------------|
G--12-12-12-12-12-12-12-12-12-12-12-12-12--|
D------------------------------------------|
A------------------------------------------|
E------------------------------------------|


G              C     F - G
Para bailar la bamba
C     F      G
Para bailar la bamba se necesita
            C        F - G
Una poca de gracia
            C      F        G
Una poca de gracia pa mi pa ti
            C      F - G
ay arriba y arriba
            C          F  G           C
Ay arriba y arriba por ti sere por ti sere
    F  G
por ti sere
Bamba,BambaBamba,BambaBamba,Bamba
SOLO 2 y final
E--0----------0-1-----------1-|--3-------3-1-0---|--0-------0-1-------1-|
B-----------1-------------1---|------0-3-------3-|--------1--------1----|
G---------0-------2-----------|----0-------------|------0-------2-------|
D-----------------------------|------------------|----------------------|
A-----------------------------|------------------|----------------------|
E-----------------------------|------------------|----------------------|


E--3-------3-1-0---|--0-------0-1-----------1-|--3-------3-1-0---|
B------0-3-------3-|--------1-------------1---|------0-3-------3-|
G----0-------------|------0-------2-----------|----0-------------|
D------------------|--------------------------|------------------|
A------------------|--------------------------|------------------|
E------------------|--------------------------|------------------|



E--0-------0-1-----------1-|--3---------0-|--3----------3--3-5--5--|
B--------1-------------1---|----------1---|------------------------|
G------0-------2-----------|-------0------|------------------------|
D--------------------------|--------------|------------------------|
A--------------------------|--------------|------------------------|
E--------------------------|--------------|------------------------|



E--3-3--3-3--1--|--0-0--0-------|---------1-----1--|--0------------|
B---------------|---------1-----|-----0-3----3-----|-----1---------|
G---------------|------------2--|--0---------------|-------0----2--|
D---------------|---------------|------------------|---------3-----|
A---------------|---------------|------------------|---------------|
E---------------|---------------|------------------|---------------|







E------------------|---0-------------|----------------|---0-------------|
B----3-0-3-0-3-0-3-|-1---3-1-0-3-1---|---3-0-3----0-3-|-1---3-1-0-3-1---|
G--0---------------|---------------2-|-0-------2------|---------------2-|
D------------------|-----------------|----------------|-----------------|
A------------------|-----------------|----------------|-----------------|
E------------------|-----------------|----------------|-----------------|



E----1-1---1---1-|---0-0-0---0---0-|----1-1-1---1---1-|---0--0-0---0---0-|
B--------0-------|---------1-------|----------0-------|----------1-------|
G-0----------2---|-0-----------2---|--0-----------2---|-0------------2---|
D----------------|-----------------|------------------|------------------|
A----------------|-----------------|------------------|------------------|
E----------------|-----------------|------------------|------------------|



E-----------0--|----3--5-5--5--|--3---3-3--5-7-|--8-8--8-8--10-10--|
B--------1-----|---------------|---------------|-------------------|
G--0---0-------|--0------------|---------------|-------------------|
D--------------|---------------|---------------|-------------------|
A--------------|---------------|---------------|-------------------|
E--------------|---------------|---------------|-------------------|



E-10-10--------------|-------------------|------------------------------|
B-------12-12--15-15-|-13-13-15-15---15--|-12-12-15-15-12---15-15-15-15-|
G--------------------|-------------0---0-|-----0-----0----0--0--0--0--0-|
D--------------------|-------------------|------------------------------|
A--------------------|-------------------|------------------------------|
E--------------------|-------------------|------------------------------|



E----------------------------------|-------------------------------|
B--15--13-13-13-13-13--15-15-15-15-|--15--12-12-12-12--15-15-15-15-|
G---0---0--0--0--0--0---0--0--0--0-|---0---0--0--0--0---0--0--0--0-|
D----------------------------------|-------------------------------|
A----------------------------------|-------------------------------|
E----------------------------------|-------------------------------|

E----------------------------------|----------------------------------|
B--15--13-13-13-13-13--15-15-15-15-|--15--12-12-12-12-12--15-15-15-15-|
G---0---0--0--0--0--0---0--0--0--0-|---0---0--0--0--0--0---0--0--0--0-|
D----------------------------------|----------------------------------|
A----------------------------------|----------------------------------|
E----------------------------------|----------------------------------|



E--------------------|--------------|--------------|----1-----1-----1-|
B--13-13--13-12--10--|---8--8-8--6--|-5-5--5-------|-------0----------|
G--------------------|-0------------|--------5--2--|-0-----------2----|
D--------------------|--------------|--------------|------------------|
A--------------------|--------------|--------------|------------------|
E--------------------|--------------|--------------|------------------|



E-----0-----0-----0--|----1-----0-----0--|-------------|----------------|
B--------1-----------|-------0-----------|-------------|----------------|
G--0-----------2-----|-0-----------2-----|-0--0--------|-0--------------|
D--------------------|-------------------|-------2--3--|----3-2-0--2--0-|
A--------------------|-------------------|-------------|----------------|
E--------------------|-------------------|-------------|----------------|



E------------------|------------|
B------------------|------------|
G-------0----0--2--|--0---------|
D-----2---3--------|------------|
A--3---------------|------------|
E------------------|------------|





Calificar esta versión:
Aviso: Este fichero es trabajo propio de su transcriptor y representa su interpretación personal de la canción. El material contenido en esta página es para exclusivo uso privado, por lo que se prohibe su reproducción o retransmisión, así como su uso para fines comerciales.
Más versiones de La Bamba, Ritchie Valens
La Bamba
tablatura
La Bamba (ver 2)
tablatura
La Bamba (ver 3)
tablatura
Descubre más canciones de Ritchie Valens