La Bamba, Ritchie Valens (tablatura) (ver 2)

Autor: choki | 33111 visualizaciones



Los acordes para esta cancion son:
Do  Fa  Sol
la introduccion es hasi:
E--------------------------------------------------------------|
B--------------------------------------------------------------|
G--------------0----2-0---------------------0---2-0------------|
D------------2---3------------0-3-3-2-0---2---3----------------|
A-----0-2-3-----------------2-----------3----------------------|
E--3----------------------3------------------------------------|

y en el coro es hasi:

E--------------------------------------------------------------|
B--------------------------------------------------------------|
G--------------------------------------------------------------|
D-------0-3-3-2-0----------------------------------------------|
A-----2--------------------------------------------------------|
E--3-----------------------------------------------------------|

y el solo:
E-------------------|-------------------|-----------------------
B-------------------|-------------------|---------------------0-
G-0-0-0-0-0-0-0-0-0-|0-0-0-0-0-0-0-0-0-0-0-0-0-0-0-0-0-0-0-2----
D-------------------|-------------------|-----------------------
A-------------------|-------------------|-----------------------
E-------------------|-------------------|-----------------------

E------------------------------|----------------------------|
B--0-1----0-----0--------------|----------------------------|
G------------2-------2----0----|--0-2--0-----0--------0-----|
D------------------------------|----------3-----2--3-----2--|
A------------------------------|----------------------------|
E------------------------------|----------------------------|

E--------------------------|----------------------------|
B--------------------------|----------------------------|
G--------------------------|----------------------------|
D--3--0--2-----0-----------|----------------------------|
A-----------3-----2--3--0--|--2-----0----------0--2--3--|
E--------------------------|-----3-----3-1--3-----------|

E--------------------------|--0--1-----0--1-----0--1--|-3-3-3-3-3-3-3-3-3-|
B-----------------0--1--3--|--------3--------3--------|-------------------|
G-----------0--2-----------|--------------------------|-------------------|
D--0--2--3-----------------|--------------------------|-------------------|
A--------------------------|--------------------------|-------------------|
E--------------------------|--------------------------|-------------------|

E-3-3-3-3-3-3-3-12------5--|--3-5-3---1--1-3-1--0--1-----0-----|
B--------------------------|--------------------------3-----1--|
G--------------------------|-----------------------------------|
D--------------------------|-----------------------------------|
A--------------------------|-----------------------------------|
E--------------------------|-----------------------------------|

E-----0-------------------------|----------------------------|
B--3-----1--3-0-1--0----0-------|----------------------------|
G----------------------2-----0--|--2--0----0--------0--------|
D-------------------------------|-------3-----2--3-----2--3--|
A-------------------------------|----------------------------|
E-------------------------------|----------------------------|

E---------------------------------|------------------------------------|
B---------------------------------|------------------------------------|
G--------0---------0-2--0-4--0-0-|--5-0-0-0-0-7-0-0-0-4-0-0-0-7-0-0-0--|
D--0--------2---3-----------------|------------------------------------|
A-----3---------------------------|------------------------------------|
E---------------------------------|------------------------------------|

E---------------------------------|-----------------------------|
B---------------------------------|-----------------------------|
G--4-0-0-0-9-0-0-0-7-0-0-0-9--10--|--10-12--12-12-12-12-12-12-12|
D---------------------------------|-----------------------------|
A---------------------------------|-----------------------------|
E---------------------------------|-----------------------------|

E------------------------------------------|
B------------------------------------------|
G--12-12-12-12-12-12-12-12-12-12-12-12-12--|
D------------------------------------------|
A------------------------------------------|
E------------------------------------------|

despues del solo se hace lo mimo:

E--------------------------------------------------------------|
B--------------------------------------------------------------|
G--------------0----2-0---------------------0---2-0------------|
D------------2---3------------0-3-3-2-0---2---3----------------|
A-----0-2-3-----------------2-----------3----------------------|
E--3----------------------3------------------------------------|





Comentarios del colaborador: cualquier pregunta al dejenme un msj al gow_yo@hotmail.com

Calificar esta versión:
Aviso: Este fichero es trabajo propio de su transcriptor y representa su interpretación personal de la canción. El material contenido en esta página es para exclusivo uso privado, por lo que se prohibe su reproducción o retransmisión, así como su uso para fines comerciales.
Más versiones de La Bamba, Ritchie Valens
La Bamba
tablatura
La Bamba (ver 2)
tablatura
La Bamba (ver 3)
tablatura
Descubre más canciones de Ritchie Valens