La Bamba, Ritchie Valens (tablatura)

Autor: Cranium | 38396 visualizaciones



La Bamba

Richie Valens

e|-----------------------------------------------|  
B|-----------------------------------------------|  
G|-------------0---2-0-------------------0---2-0-|  
D|-----------2---3---------0-3-3-2-0---2---3-----|  
A|-----0-2-3-------------2-----------3-----------|
E|---3-----------------3-------------------------|  



              C    F G   
Para bailar la Bamba   
               C        F    G                C    F G   
Para bailar la Bamba se necesita una poca de gracia   
             C        F     G                   C   F G   
una poca de gracia y otra cosita ay arriba y arriba   
               C       F     G   F     C       F      G                    
ay arriba y arriba por ti sere  por ti sere por ti sere   
             C   F G   
yo no soy marinero   
               C        F    G          C       F   G   
yo no soy marinero soy capitan soy capitan soy capitan   
  
  
  
C   F     G   
Bamba la Bamba   
C   F     G   
Bamba la Bamba   
C   F     G   
Bamba la Bamba   
C   F     G   
Bamba la Bamba  



C = DO
F = FA
G = SOL



            DO 
e|-0---------------------------------------------|  
B|-1---------------------------------------------|  
G|-0---------------------------------------------|  
D|-2---------------------------------------------|  
A|-3---------------------------------------------|  
E|-----------------------------------------------|  

            FA
e|-1---------------------------------------------|  %0





Calificar esta versión:
Aviso: Este fichero es trabajo propio de su transcriptor y representa su interpretación personal de la canción. El material contenido en esta página es para exclusivo uso privado, por lo que se prohibe su reproducción o retransmisión, así como su uso para fines comerciales.
Más versiones de La Bamba, Ritchie Valens
La Bamba
tablatura
La Bamba (ver 2)
tablatura
La Bamba (ver 3)
tablatura
Descubre más canciones de Ritchie Valens