La Bamba, Richie Valens (tablatura) (ver 5)

Autor: all you need is rock | 45285 visualizaciones



Intro
e------------------------------------------------
B------------------------------------------------
G-----------------2-0--------------------0----2-0
D-----------0-2-3---------0-3-3-2-0----2---3-3---
A-----0-2-3-------------2-----------2------------
E--3------------------3--------------------------

e------------------------------------------------
B------------------------------------------------
G------------------------0-----2-0---------------
D---------0-3-3-2-0----2---3-3-------------------
A-------2-----------2----------------------------
E-----3------------------------------------------



G              C     F - G
Para bailar la bamba
               C     F      G
Para bailar la bamba se necesita
            C        F  G
Una poca de gracia
            C      F        G
Una poca de gracia pa mi pa ti
            C      F - G
ay arriba y arriba
            C          F  G           C
Ay arriba y arriba por ti sere por ti sere
    F  G
por ti sere


Yo no soy marinero
Yo no soy marinero soy capitan
Soy capitan
Soy capitan

Bamba,Bamba
Bamba,Bamba
Bamba,Bamba
Bamba,Bamba

Para bailar la bamba
Para bailar la bamba se necesita
Una poca de gracia
Una poca de gracia pa mi pa tia
ay arriba y arriba

1er SOLO

Aquí empieza el solo


E-------------------|-------------------|------------------------|
B-------------------|-------------------|---------------------0--|
G-0-0-0-0-0-0-0-0-0-|0-0-0-0-0-0-0-0-0-0-0-0-0-0-0-0-0-0-0-2-----|
D-------------------|-------------------|------------------------|
A-------------------|-------------------|------------------------|
E-------------------|-------------------|------------------------|


E------------------------------|----------------------------|
B--0-1----0-----0--------------|----------------------------|
G------------2-------2----0----|--0-2--0-----0--------0-----|
D------------------------------|----------3-----2--3-----2--|
A------------------------------|----------------------------|
E------------------------------|----------------------------|



E--------------------------|----------------------------|
B--------------------------|----------------------------|
G--------------------------|----------------------------|
D--3--0--2-----0-----------|----------------------------|
A-----------3-----2--3--0--|--2-----0----------0--2--3--|
E--------------------------|-----3-----3-1--3-----------|



E--------------------------|--0--1-----0--1-----0--1--|-3-3-3-3-3-3-3-3-3-|
B-----------------0--1--3--|--------3--------3--------|-------------------|
G-----------0--2-----------|--------------------------|-------------------|
D--0--2--3-----------------|--------------------------|-------------------|
A--------------------------|--------------------------|-------------------|
E--------------------------|--------------------------|-------------------|



E-3-3-3-3-3-3-3-12------5--|--3?5?3---1--1?3?1--0--1-----0-----|
B--------------------------|--------------------------3-----1--|
G--------------------------|-----------------------------------|
D--------------------------|-----------------------------------|
A--------------------------|-----------------------------------|
E--------------------------|-----------------------------------|




E-----0-------------------------|----------------------------|
B--3-----1--3?0?1--0----0-------|----------------------------|
G----------------------2-----0--|--2--0----0--------0--------|
D-------------------------------|-------3-----2--3-----2--3--|
A-------------------------------|----------------------------|
E-------------------------------|----------------------------|




E---------------------------------|------------------------------------|
B---------------------------------|------------------------------------|
G--------0---------0?2--0-4--0-0-|--5-0-0-0-0-7-0-0-0-4-0-0-0-7-0-0-0--|
D--0--------2---3-----------------|------------------------------------|
A-----3---------------------------|------------------------------------|
E---------------------------------|------------------------------------|






E---------------------------------|-----------------------------|
B---------------------------------|-----------------------------|
G--4-0-0-0-9-0-0-0-7-0-0-0-9--10--|--10-12--12-12-12-12-12-12-12|
D---------------------------------|-----------------------------|
A---------------------------------|-----------------------------|
E---------------------------------|-----------------------------|


E------------------------------------------|
B------------------------------------------|
G--12-12-12-12-12-12-12-12-12-12-12-12-12--|
D------------------------------------------|
A------------------------------------------|
E------------------------------------------|





Calificar esta versión:
Aviso: Este fichero es trabajo propio de su transcriptor y representa su interpretación personal de la canción. El material contenido en esta página es para exclusivo uso privado, por lo que se prohibe su reproducción o retransmisión, así como su uso para fines comerciales.
Más versiones de La Bamba, Richie Valens
La Bamba
acordes
La Bamba (ver 2)
acordes
La Bamba
tablatura
La Bamba (ver 2)
tablatura
La Bamba (ver 3)
tablatura
La Bamba (ver 4)
tablatura
La Bamba (ver 5)
tablatura
La Bamba (ver 6)
tablatura
La Bamba
bajo
Descubre más canciones de Richie Valens