La Bamba, Richie Valens (bajo)

Autor: Anónimo | 33065 visualizaciones



Ritchie Valens (Los Lobos)

Primero la introducción la hace la guitarra sola.

Estrofas
G |-----------------------|
D |-----------------------|
A |-3-3---------------0-2-|
E |-----0-1-1-3-3-0-1-----| X6


G |-------------|
D |-------------|
A |-3-3---------|
E |-----0-1-1-3-|X1

[Se repite 3 veces mas]

El punteo va con esto
G |-------------------------|
D |-------------------------|
A |-3-3-----------------0-2-|
E |-----0-1-1-3-3-0-1-1-----|


Termina con esto.
G |-------|
D |-------|
A |-3-----|
E |---1-3-|





Calificar esta versión:
Aviso: Este fichero es trabajo propio de su transcriptor y representa su interpretación personal de la canción. El material contenido en esta página es para exclusivo uso privado, por lo que se prohibe su reproducción o retransmisión, así como su uso para fines comerciales.
Más versiones de La Bamba, Richie Valens
La Bamba
acordes
La Bamba (ver 2)
acordes
La Bamba
tablatura
La Bamba (ver 2)
tablatura
La Bamba (ver 3)
tablatura
La Bamba (ver 4)
tablatura
La Bamba (ver 5)
tablatura
La Bamba (ver 6)
tablatura
La Bamba
bajo
Descubre más canciones de Richie Valens