La Bamba, Richie Valens (tablatura) (ver 4)

Autor: Mantor | 31504 visualizaciones



Inicio:
 |--------------------------------------------------------|
 |--------------------------------------------------------|
 |-------------0---2-0----------------------0----2-0------|
 |-----------2---3------------0-3-3-2-0---2---3-----------|
 |-----0-2-3----------------2-----------3-----------------|
 |---3--------------------3-------------------------------|

Verso 1:

   Para bailar la bamba.......
 |--------------------------------------------------------|
 |--------------------------------------------------------|
 |--------------------------0---2-0-----------------------|
 |-------0-3-3-2-0--------2---3---------------------------|
 |-----2----------------3---------------------------------|
 |---3----------------------------------------------------|

Coro:
Solo de guitarra: 
 
 |---------------------------------------------------------------------|
 |---------------------------------------------------------------------|
 |--------------------------------2-4-5---4-2-4-2----2-----------------|
 |--555555555555555-------------------------------5-----5---5-2-3------|
 |---------------------------------------------------------------------|
 |---------------------------------------------------------------------|

 |-----------------------------------------------------------------------------3---|
 |-----------------------------------------------------------------3-5-6-3-5-6-----|
 |----------------------------------------------------------2-4-5------------------|
 |------2--------------------------------------------2-3-5-------------------------|
 |---5-----3-5--2-3------2-------2------------2-3-5--------------------------------|
 |--------------------5-----3-5----------3-5---------------------------------------|

 



 |-11-11-11-11-11-11-11-11-11-\------5-3--5-3-1--3-1-0-----0-------------|
 |------------------------------------------------------3-----1-3----0-1-|
 |-----------------------------------------------------------------------|
 |-----------------------------------------------------------------------|
 |-----------------------------------------------------------------------|
 |-----------------------------------------------------------------------|


 |----------------------------|----------------------------------------------------|
 |----0-----------------------|----------------------------------------------------|
 |--2----0-2----0------0------| 0-0-0-0-0--9-9-9-9-9--0-0-0-0-0--7-7-7-7-7--0-0-0-0|
 |------------3---2-3-----2-3-|----------------------------------------------------|
 |----------------------------|----------------------------------------------------|
 |----------------------------|----------------------------------------------------|

 |-------------------------------------------------------------------------------|
 |-------------------------------------------------------------------------------|
 |-5-5-5-5-5--0-0-0-0-0--9-9-9-9-9--0-0-0-0-0--7-7-7-7-7--0-0-0-0-0--5-5-5-5-5---|
 |-------------------------------------------------------------------------------|
 |-------------------------------------------------------------------------------|
 |-------------------------------------------------------------------------------|

 |-------------------------------------------------|
 |-------------------------------------------------|
 |-0-0-0-0-0-0--12-12-12-12-12-12-12-12-12---------|
 |-------------------------------------------------|
 |-------------------------------------------------|
 |-------------------------------------------------|





Calificar esta versión:
Aviso: Este fichero es trabajo propio de su transcriptor y representa su interpretación personal de la canción. El material contenido en esta página es para exclusivo uso privado, por lo que se prohibe su reproducción o retransmisión, así como su uso para fines comerciales.
Más versiones de La Bamba, Richie Valens
La Bamba
acordes
La Bamba (ver 2)
acordes
La Bamba
tablatura
La Bamba (ver 2)
tablatura
La Bamba (ver 3)
tablatura
La Bamba (ver 4)
tablatura
La Bamba (ver 5)
tablatura
La Bamba (ver 6)
tablatura
La Bamba
bajo
Descubre más canciones de Richie Valens