Veneno En La Piel, Radio Futura (tablatura) (ver 2)

Autor: Anónimo | 44172 visualizaciones

e-------------------------------------------
B-------------------------------------------
G---------------------------------7-6-------
D-----------5-7-5---------------------------
A-5-4-5-7-8-------8-7-5-4-5-5-7-8-----7-5-7-
E-------------------------------------------



e-----------------------------5-------------
B---------6-5-------8-6-5-6-8---8-6-5-------
G-7-----------7-6-7-------------------7-6-7-
D---7-5-------------------------------------
A-------8-----------------------------------
E-------------------------------------------
Calificar esta versión:
Aviso: Este fichero es trabajo propio de su transcriptor y representa su interpretación personal de la canción. El material contenido en esta página es para exclusivo uso privado, por lo que se prohibe su reproducción o retransmisión, así como su uso para fines comerciales.
Más versiones de Veneno En La Piel, Radio Futura
Veneno En La Piel
acordes
Veneno En La Piel (ver 2)
acordes
Veneno En La Piel
tablatura
Veneno En La Piel (ver 2)
tablatura
Veneno En La Piel
bajo
Descubre más canciones de Radio Futura