Veneno En La Piel, Radio Futura (tablatura)

Autor: Anónimo | 20412 visualizaciones

e-----------------------------------------------------
B------------------------------2*3-3-2-----3----------
G---------0-2-0-----------------------2-0-2-2-0-------
D--0-0-2-3-----3-2-0--0---0-2-3----------------3------
A---4----------------4--------------------------------
E-----------------------------------------------------

e---0*1-1-0-----3-1-0-1--3-5-3-1-0--------------------
B----------3-2-3------------------3-2-3---------------
G-----------------------------------------------------
D-----------------------------------------------------
A-----------------------------------------------------
E-----------------------------------------------------



Este es el intro de la rola y el bridge, lo mando porque
el que estaba no es correcto y estaba bien cucho.
Saludos y si quieren cualquier tablatura de lo que sea,
en inglés o español, aquí está su Dios
federico_becerra@hotmail.com
Calificar esta versión:
Aviso: Este fichero es trabajo propio de su transcriptor y representa su interpretación personal de la canción. El material contenido en esta página es para exclusivo uso privado, por lo que se prohibe su reproducción o retransmisión, así como su uso para fines comerciales.
Más versiones de Veneno En La Piel, Radio Futura
Veneno En La Piel
acordes
Veneno En La Piel (ver 2)
acordes
Veneno En La Piel
tablatura
Veneno En La Piel (ver 2)
tablatura
Veneno En La Piel
bajo
Descubre más canciones de Radio Futura