Veneno En La Piel, Radio Futura (bajo)

Autor: Anónimo | 16982 visualizaciones

  G|-----------------------------------| x3
  D|-----------------------------------|
  A|---0--3-3--5--3-3--0-0--3-3--5-----|
  E|-------------------------------3-3-|

   Intro Dicen que tienes veneno en la piel...


  G|---------------------------------------------------| x2
  D|--------7-7-------------------------7-7------------|
  A|--0---7-------5--5--3-3---0-0-----7------5-5-------|
  E|----------------------------------------------3-3--|

   y si esta noche quieres ir a bailar...


  G|---------------------------------------------------| x2
  D|--------7-7-------------------------7-7------------|
  A|--0---7-------5--5--3-3---0-0-----7------5-5-------|
  E|----------------------------------------------3-3--|

   pero primero quieres ir a cenar ...


  G|-----------------------------------| x2
  D|-----------------------------------|
  A|---0--3-3--5--3-3--0-0--3-3--5-----|
  E|-------------------------------3-3-|

   Solo de guitarra


  G|---------------------------------------------------| x2
  D|--------7-7-------------------------7-7------------|
  A|--0---7-------5--5--3-3---0-0-----7------5-5-------|
  E|----------------------------------------------3-3--|

   Yo voy haciendome la cuenta de cabeza ...


  G|---------------------------------------------------| x2
  D|--------7-7-------------------------7-7------------|
  A|--0---7-------5--5--3-3---0-0-----7------5-5-------|
  E|----------------------------------------------3-3--|

   y aquí te espero en la barra del bar ...


  G|------------------------------------|
  D|------------------------------------|  x4
  A|--0-0--3-4---5-5---5-3-3------------|
  E|------------------------------------|

   Te crees que eres una bruja consumada...


  G|-----------------------------------|
  D|-----------------------------------|
  A|---0--3-3--5--3-3--0-0--3-3--5-----|
  E|-------------------------------3-3-|

   Dicen que tienes veneno en la piel...


  G|---------------------------------------------------| x2
  D|--------7-7-------------------------7-7------------|
  A|--0---7-------5--5--3-3---0-0-----7------5-5-------|
  E|----------------------------------------------3-3--|

   dices que yo no soy tu hombre ideal...


  G|------------------------------------|
  D|------------------------------------|  x4
  A|--0-0--3-4---5-5---5-3-3------------|
  E|------------------------------------|

   Te crees que eres una bruja consumada...


  G|-----------------------------------| x2
  D|-----------------------------------|
  A|---0--3-3--5--3-3--0-0--3-3--5-----|
  E|-------------------------------3-3-|

   Dicen que tienes veneno en la piel...


  G|---------------------------------------------------| x6
  D|--------7-7-------------------------7-7------------|
  A|--0---7-------5--5--3-3---0-0-----7------5-5-------|
  E|----------------------------------------------3-3--|

   Solo guitarra
Calificar esta versión:
Aviso: Este fichero es trabajo propio de su transcriptor y representa su interpretación personal de la canción. El material contenido en esta página es para exclusivo uso privado, por lo que se prohibe su reproducción o retransmisión, así como su uso para fines comerciales.
Más versiones de Veneno En La Piel, Radio Futura
Veneno En La Piel
acordes
Veneno En La Piel (ver 2)
acordes
Veneno En La Piel
tablatura
Veneno En La Piel (ver 2)
tablatura
Veneno En La Piel
bajo
Descubre más canciones de Radio Futura