Esclavo Y Amo, Pasteles Verdes (tablatura) (ver 2)

Autor: Anónimo | 24523 visualizaciones

Espero que les guste esta versión, yo la utilizó en las
Serenatas y se escucha muy bien.

               *** REQUINTO ***
            Am         G          F
e|-0--5-----|-0--1--3--|----------|----------|
B|----------|----------|-3--5--6--|-1--3--5--|
G|----------|----------|----------|----------|

      *** BAJO ***
 E
D|-2--3--2--0-----------|
A|------------3--2---0--|
E|----------------------|

               *** REQUINTO ***
            Am         G          F
e|-0--5-----|-0--1--3--|----------|----------|
B|----------|----------|-3--5--6--|-1--3--5--|
G|----------|----------|----------|----------|

      *** BAJO ***
 E
D|-2--3--2--0-----------|
A|------------3--2---0--|
E|----------------------|

Esta parte se puede hacer en la sexta cuerda nada más,
Sin utilizar la primera, se oye bien.

      *** SOLO SIN ACOMPAÑAMIENTO ***
e|--0--5----5--3--5--||--0--5--|
B|-------------------||--------|
G|-------------------||--------|
D|-------------------||--------|
A|-------------------||--------|
E|--0--5----5--3--5--||--0--5--|

   Am
No se que tienen tus ojos
                    G
No se que tiene tu boca
                  F
Que domina mis antojos
                     E
Y a mi sangre vuelve loca


    Am
No se como fui a quererte
                     G
Ni como te fui adorando
                     F
Me siento morir mil veces
                      E
Cuando no te estoy mirando


Dm
De noche cuando me acuesto
    Am      E        Am
A Dios le pido olvidarte
                     G
Y al amanecer despierto
      F           E
Tan solo para adorarte


Dm
Que influencia tienen tus labios
      Am       E      Am
Que cuando me besan tiemblo
                        G     F   E
Hacen que me sienta esclavo y amo
        Am
Del universo


               *** REQUINTO ***
            Am         G          F
e|-0--5-----|-0--1--3--|----------|----------|
B|----------|----------|-3--5--6--|-1--3--5--|
G|----------|----------|----------|----------|

      *** BAJO ***
 E
D|-2--3--2--0-----------|
A|------------3--2---0--|
E|----------------------|

Dm
De noche cuando me acuesto
    Am      E        Am
A Dios le pido olvidarte
                     G
Y al amanecer despierto
      F           E
Tan solo para adorarte


Dm
Que influencia tienen tus labios
      Am       E      Am
Que cuando me besan tiemblo
                        G     F   E
Hacen que me sienta esclavo y amo
        Am    G-F-E-Am
Del universo


      *** SOLO SIN ACOMPAÑAMIENTO ***
e|--0--5----5--3--5--||--0--5--|
B|-------------------||--------|
G|-------------------||--------|
D|-------------------||--------|
A|-------------------||--------|
E|--0--5----5--3--5--||--0--5--|

                                        ***FIN***


                       ***J_M_C***
Calificar esta versión:
Aviso: Este fichero es trabajo propio de su transcriptor y representa su interpretación personal de la canción. El material contenido en esta página es para exclusivo uso privado, por lo que se prohibe su reproducción o retransmisión, así como su uso para fines comerciales.
Más versiones de Esclavo Y Amo, Pasteles Verdes
Esclavo Y Amo
acordes
Esclavo Y Amo
tablatura
Esclavo Y Amo (ver 2)
tablatura
Descubre más canciones de Pasteles Verdes