Esclavo Y Amo, Pasteles Verdes (tablatura)

Autor: Anónimo | 42377 visualizaciones

I N T R O

    Am      G     F     E

e|-0-5--0-1-3---0-1-----0-|
B|------------3-----1-3---|
G|------------------------|
D|------------------------|
A|------------------------|
E|------------------------|


  SIN       ACOMPAÑAMIENTO

e|-------------4-5-7-5-4---5-4-5-4----|-------------|
B|-5-6-5-3-5-6-----------6---------6-5|-------------|
G|------------------------------------|-------------|
D|------------------------------------|---7-7-6-7---|
A|------------------------------------|-7---------7-|
E|------------------------------------|-------------|


   Am
No sé qué tienen tus ojos
                   G
no sé que tiene tu boca
                  F
que domina mis antojos
                      E
y a mi sangre vuelve loca.

   Am
No sé cómo fui a quererte
                   G
ni como te fui adorando
                     F
me siento morir mil veces
                     E
cuando no te estoy amando.

   Dm
De noche cuando me acuesto
   Am      E        Am
a dios le pido olvidarte
                   G
y al amanecer despierto
     F            E
tan solo para adorarte.

 Dm
Que influencia tienen tus labios
     Am     E        Am
que cuando me besan tiemblo
                          G
y hacen que me sienta esclavo
  F           E
y amo del universo.


   Am                              G

     x12        x12    x8 x4         x11
e|--------------------------------------|
B|---10-12-13-12-10----10-12-13-10-12-8-|
G|-9------------------9-----------------|
D|--------------------------------------|
A|--------------------------------------|
E|--------------------------------------|


                F                             E
e|------------------------------------------------------|
B|--6s8-10-12-8-8s10-6-----4s6-6-6-8s10-10-10-7s9-6-7s9-|
G|-7----------------------5-----------------------------|
D|------------------------------------------------------|
A|------------------------------------------------------|
E|------------------------------------------------------|



   Dm
De noche cuando me acuesto
   Am      E        Am
a dios le pido olvidarte
                   G
y al amanecer despierto
     F            E
tan solo para adorarte.

 Dm
Que influencia tienen tus labios
     Am     E        Am
que cuando me besan tiemblo
                          G
y hacen que me sienta esclavo
  F     E         Am
y amooooo del universo.

      --FINAL--

   F G*  A* A

e|-1-3--5--0--|
B|------------|


    G*    A*

e|--3--|--5--|
B|--3--|--5--|
G|--4--|--6--|
D|--5--|--7--|
A|--5--|--7--|
E|--3--|--5--|
Calificar esta versión:
Aviso: Este fichero es trabajo propio de su transcriptor y representa su interpretación personal de la canción. El material contenido en esta página es para exclusivo uso privado, por lo que se prohibe su reproducción o retransmisión, así como su uso para fines comerciales.
Más versiones de Esclavo Y Amo, Pasteles Verdes
Esclavo Y Amo
acordes
Esclavo Y Amo
tablatura
Esclavo Y Amo (ver 2)
tablatura
Descubre más canciones de Pasteles Verdes