Esclavo Y Amo, Pasteles Verdes (acordes)

Autor: Anónimo | 29662 visualizaciones

abmemfsos7g
Intro:
     Bm         A       G       F#7 
E ----7----------------------------------------
B --7------7-8-10---5-7-8---3-5-7--------------
G ---------------------------------------------

E --------------5-7-9---7-6--3-7--6-7-6--------
B --7-8-7-5-7-8--------------------------8-7---
G ---------------------------------------------

E -----------------
B -----------------
G ----4--4-3-4---4-
D --4-----------4--

Bm       
No se que tiene tus ojos
                   A  
no se que tiene tu boca
                 G 
que domina mis antojos
                  F#7
y a mi sangre vuelve loca

Bm
No se como fui a quererte
                  A
ni como te fui adorando
                    G
me siento morir mil veces
                     F#7
cuando no te estoy mirando

   Em        
De noche cuando me acuesto
  F#7              Bm   
a Dios le pido olvidarte
                  A 
y al amanecer despierto
     G           F#7 
tan solo para adorarte

    Em
Que influencia tienen tus labios
    F#7             Bm 
que cuando me besan tiemblo
                         A  
y hacen que me sienta esclavo
   G         F#7     
y amo del universo

      Bm            
E ----7--7-5-7-9-10-7---
B --7-------------------
                    A
E ----7--7-9-10-7-9-5---
B --7-------------------
                   G
E ----5--5-7-9-5-7-3----
B --5-------------------
                   F#7
E ----3--3-5-7-7-6------
B --3--------------7----

   Em        
De noche cuando me acuesto
  F#7              Bm   
a Dios le pido olvidarte
                  A 
y al amanecer despierto
     G           F#7 
tan solo para adorarte

    Em
Que influencia tienen tus labios
    F#7             Bm 
que cuando me besan tiemblo
                         A  
y hacen que me sienta esclavo
   G         F#7     
y amo del universo
Calificar esta versión:
Aviso: Este fichero es trabajo propio de su transcriptor y representa su interpretación personal de la canción. El material contenido en esta página es para exclusivo uso privado, por lo que se prohibe su reproducción o retransmisión, así como su uso para fines comerciales.
Más versiones de Esclavo Y Amo, Pasteles Verdes
Esclavo Y Amo
acordes
Esclavo Y Amo
tablatura
Esclavo Y Amo (ver 2)
tablatura
Descubre más canciones de Pasteles Verdes