Walk, Pantera (tablatura) (ver 5)

Autor: matiasrck | 16738 visualizaciones



Walk - Pantera

Nota: Si no tiene la misma afinacion que en la cancion original, les va a sonar como la mierda. El slide que saque, esta mal, asi que traten de sacarlo ustedes.

Afinación:
e (mi)
B (Si)
G (Sol)
D (Re)
A (La)
D (Re)

/: Slide a la derecha
\: Slide a la izquierda
^: estirar la cuerda

|-----------------------------------------------------------|
|-----------------------------------------------------------|
|-----------------------------------------------------------|
|-----------------------------------------------------------|
|-----------------------------------------------------------|
|-0-0-1^-0--0-1^-0--0-1^-0--0-1^-0--0-1^-0--0-1^-0--0-1^-0--|

|--------------------------------------------------------|
|--------------------------------------------------------|
|--------------------------------------------------------|
|--------------------------------------------------------|
|--------------------------------------------------------|
|-/10\4/8-------------------------------------------------|

|-----------------------------------------------------------|
|-----------------------------------------------------------|
|-----------------------------------------------------------|
|-----------------------------------------------------------|
|-----------------------------------------------------------|
|-0-0-1^-0--0-1^-0--0-1^-0--0-1^-0--0-1^-0--0-1^-0--0-1^-0--|

|--------------------------------------------------------|
|--------------------------------------------------------|
|--------------------------------------------------------|
|--------------------------------------------------------|
|--------------------------------------------------------|
|-/10\4/8-------------------------------------------------|

|--------------------------------------------------------|
|--------------------------------------------------------|
|-------------5--------------3---------------------------|
|-------------5--------------3--------------1------------|
|-------------3--------------1--------------1------------|
|-0-0-1^-0-0-----0-0-1^-0-0-----0-0-1^-0-0---------------|

|--------------------------------------------------------|
|--------------------------------------------------------|
|--------------------------------------------------------|
|--------------------------------------------------------|
|--------------------------------------------------------|
|-0-1-0-3-0-4-0-3-0-1-0----------------------------------|

|--------------------------------------------------------|
|--------------------------------------------------------|
|-------------5--------------3---------------------------|
|-------------5--------------3--------------1------------|
|-------------3--------------1--------------1------------|
|-0-0-1^-0-0-----0-0-1^-0-0-----0-0-1^-0-0---------------|

|--------------------------------------------------------|
|--------------------------------------------------------|
|--------------------------------------------------------|
|--------------------------------------------------------|
|--------------------------------------------------------|
|-0-1-0-3-0-4-0-3-0-1-0-0-1-0-3-0-4-0-3-0-1-0------------|

Verso

|-----------------------------------------------------------|
|-----------------------------------------------------------|
|-----------------------------------------------------------|
|-----------------------------------------------------------|
|-----------------------------------------------------------|
|-0-0-1^-0--0-1^-0--0-1^-0--0-1^-0--0-1^-0--0-1^-0--0-1^-0--|

|--------------------------------------------------------|
|--------------------------------------------------------|
|--------------------------------------------------------|
|--------------------------------------------------------|
|--------------------------------------------------------|
|-/10\4/8-------------------------------------------------|

|-----------------------------------------------------------|
|-----------------------------------------------------------|
|-----------------------------------------------------------|
|-----------------------------------------------------------|
|-----------------------------------------------------------|
|-0-0-1^-0--0-1^-0--0-1^-0--0-1^-0--0-1^-0--0-1^-0--0-1^-0--|

|--------------------------------------------------------|
|--------------------------------------------------------|
|--------------------------------------------------------|
|--------------------------------------------------------|
|--------------------------------------------------------|
|-/10\4/8-------------------------------------------------|

Precoro

|--------------------------------------------------------|
|--------------------------------------------------------|
|-5~------3~---------------------------------------------|
|-5~------3~---------------------------------------------|
|-3~------1~---------------------------------------------|
|-------------0-0-1^-0--0-1^-0--0-1^-0--0-1^-0-----------|

|--------------------------------------------------------|
|--------------------------------------------------------|
|-5~------3~---------------------------------------------|
|-5~------3~---------------------------------------------|
|-3~------1~---------------------------------------------|
|-------------0-0-1^-0--0-1^-0--0-1^-0--0-1^-0-----------|

|--------------------------------------------------------|
|--------------------------------------------------------|
|-5~------3~---------------------------------------------|
|-5~------3~------2~------1~-----------------------------|
|-3~------1~------2~------1~-----------------------------|
|-----------------0~------0~-----------------------------|

Coro

|--------------------------------------------------------|
|--------------------------------------------------------|
|-------------5--------------3---------------------------|
|-------------5--------------3--------------1------------|
|-------------3--------------1--------------1------------|
|-0-0-1^-0-0-----0-0-1^-0-0-----0-0-1^-0-0---------------|

|--------------------------------------------------------|
|--------------------------------------------------------|
|--------------------------------------------------------|
|--------------------------------------------------------|
|--------------------------------------------------------|
|-0-1-0-3-0-4-0-3-0-1-0----------------------------------|

|--------------------------------------------------------|
|--------------------------------------------------------|
|-------------5--------------3---------------------------|
|-------------5--------------3--------------1------------|
|-------------3--------------1--------------1------------|
|-0-0-1^-0-0-----0-0-1^-0-0-----0-0-1^-0-0---------------|

|--------------------------------------------------------|
|--------------------------------------------------------|
|--------------------------------------------------------|
|--------------------------------------------------------|
|--------------------------------------------------------|
|-0-1-0-3-0-4-0-3-0-1-0-0-1-0-3-0-4-0-3-0-1-0------------|

Intermedio

|-----------------------------------------------------------|
|-----------------------------------------------------------|
|-----------------------------------------------------------|
|-----------------------------------------------------------|
|-----------------------------------------------------------|
|-0-0-1^-0--0-1^-0--0-1^-0--0-1^-0--0-1^-0--0-1^-0--0-1^-0--|

|--------------------------------------------------------|
|--------------------------------------------------------|
|--------------------------------------------------------|
|--------------------------------------------------------|
|--------------------------------------------------------|
|-/10\4/8------------------------------------------------|

Verso

|-----------------------------------------------------------|
|-----------------------------------------------------------|
|-----------------------------------------------------------|
|-----------------------------------------------------------|
|-----------------------------------------------------------|
|-0-0-1^-0--0-1^-0--0-1^-0--0-1^-0--0-1^-0--0-1^-0--0-1^-0--|

|--------------------------------------------------------|
|--------------------------------------------------------|
|--------------------------------------------------------|
|--------------------------------------------------------|
|--------------------------------------------------------|
|-/10\4/8------------------------------------------------|

|-----------------------------------------------------------|
|-----------------------------------------------------------|
|-----------------------------------------------------------|
|-----------------------------------------------------------|
|-----------------------------------------------------------|
|-0-0-1^-0--0-1^-0--0-1^-0--0-1^-0--0-1^-0--0-1^-0--0-1^-0--|

|--------------------------------------------------------|
|--------------------------------------------------------|
|--------------------------------------------------------|
|--------------------------------------------------------|
|--------------------------------------------------------|
|-/10\4/8------------------------------------------------|

Precoro

|--------------------------------------------------------|
|--------------------------------------------------------|
|-5~------3~---------------------------------------------|
|-5~------3~---------------------------------------------|
|-3~------1~---------------------------------------------|
|-------------0-0-1^-0--0-1^-0--0-1^-0--0-1^-0-----------|

|--------------------------------------------------------|
|--------------------------------------------------------|
|-5~------3~---------------------------------------------|
|-5~------3~---------------------------------------------|
|-3~------1~---------------------------------------------|
|-------------0-0-1^-0--0-1^-0--0-1^-0--0-1^-0-----------|

|--------------------------------------------------------|
|--------------------------------------------------------|
|-5~------3~---------------------------------------------|
|-5~------3~------2~------1~-----------------------------|
|-3~------1~------2~------1~-----------------------------|
|-----------------0~------0~-----------------------------|

Coro

|--------------------------------------------------------|
|--------------------------------------------------------|
|-------------5--------------3---------------------------|
|-------------5--------------3--------------1------------|
|-------------3--------------1--------------1------------|
|-0-0-1^-0-0-----0-0-1^-0-0-----0-0-1^-0-0---------------|

|--------------------------------------------------------|
|--------------------------------------------------------|
|--------------------------------------------------------|
|--------------------------------------------------------|
|--------------------------------------------------------|
|-0-1-0-3-0-4-0-3-0-1-0----------------------------------|

|--------------------------------------------------------|
|--------------------------------------------------------|
|-------------5--------------3---------------------------|
|-------------5--------------3--------------1------------|
|-------------3--------------1--------------1------------|
|-0-0-1^-0-0-----0-0-1^-0-0-----0-0-1^-0-0---------------|

|--------------------------------------------------------|
|--------------------------------------------------------|
|--------------------------------------------------------|
|--------------------------------------------------------|
|--------------------------------------------------------|
|-0-1-0-3-0-4-0-3-0-1-0----------------------------------|

|--------------------------------------------------------|
|--------------------------------------------------------|
|-------------5--------------3---------------------------|
|-------------5--------------3--------------1------------|
|-------------3--------------1--------------1------------|
|-0-0-1^-0-0-----0-0-1^-0-0-----0-0-1^-0-0---------------|

|--------------------------------------------------------|
|--------------------------------------------------------|
|--------------------------------------------------------|
|--------------------------------------------------------|
|--------------------------------------------------------|
|-0-1-0-3-0-4-0-3-0-1-0----------------------------------|

|--------------------------------------------------------|
|--------------------------------------------------------|
|-------------5--------------3---------------------------|
|-------------5--------------3--------------1------------|
|-------------3--------------1--------------1------------|
|-0-0-1^-0-0-----0-0-1^-0-0-----0-0-1^-0-0---------------|

|--------------------------------------------------------|
|--------------------------------------------------------|
|--------------------------------------------------------|
|--------------------------------------------------------|
|--------------------------------------------------------|
|-0-1-0-3-0-4-0-3-0-1-0-0-1-0-3-0-4-0-3-0-1-0------------|

|--------------------------------------------------------|
|--------------------------------------------------------|
|--------------------------------------------------------|
|--------------------------------------------------------|
|--------------------------------------------------------|
|-0-1-0-3-0-4-0-3-0-1-0-0-1-0-3-0-4-0-3-0-1-0------------|

Esto es lo basico de la cancion que pude sacar, es solo no lo saque por que se me hizo dificil, y no quiero copiarlo de cualquier otra pagina de tablaturas, si al final se que va a estar mal y no les va a servir un carajo.

Pantera Rocks \m/





Calificar esta versión:
Aviso: Este fichero es trabajo propio de su transcriptor y representa su interpretación personal de la canción. El material contenido en esta página es para exclusivo uso privado, por lo que se prohibe su reproducción o retransmisión, así como su uso para fines comerciales.
Más versiones de Walk, Pantera
Walk
tablatura
Walk (ver 2)
tablatura
Walk (ver 3)
tablatura
Walk (ver 4)
tablatura
Walk (ver 5)
tablatura
Walk
bajo
Walk (ver 2)
bajo
Descubre más canciones de Pantera