Walk, Pantera (tablatura) (ver 3)

Autor: armaggedon | 29760 visualizaciones



1.------------------------------------------
2.------------------------------------------
3.------------------------------------------
4.------------------------------------------
5.-0-0-1-1-0-1-1-0-1-1-0-1-1----------------
6.-0-0-1-1-0-1-1-0-1-1-0-1-1-5-5-5-5-5-5s1h0


1.----------------------------------
2.----------------------------------
3.----------------------------------      
4.----------------------------------
5.-0-0-1-1-0-5-0-0-1-1-0-3-0-0-1-0-5
6.-0-0-1-1-0-5-0-0-1-1-0-3-0-0-1-0-5


1.------------
2.------------
3.------------ x4(plumillear hacia arriba y hacia abajo)
4.------------
5.------------
6.-5-5-5-5-5-5





Comentarios del colaborador: Solo es el principio(Para que se emocionen al tocarla) hasta donde empieza a rugir Philip Anselmo

Calificar esta versión:
Aviso: Este fichero es trabajo propio de su transcriptor y representa su interpretación personal de la canción. El material contenido en esta página es para exclusivo uso privado, por lo que se prohibe su reproducción o retransmisión, así como su uso para fines comerciales.
Más versiones de Walk, Pantera
Walk
tablatura
Walk (ver 2)
tablatura
Walk (ver 3)
tablatura
Walk (ver 4)
tablatura
Walk (ver 5)
tablatura
Walk
bajo
Walk (ver 2)
bajo
Descubre más canciones de Pantera