Walk, Pantera (tablatura) (ver 2)

Autor: turko22 | 27038 visualizaciones



la version no es la mejor pero es facil:



1-------------------------------------------------------|
2-------------------------------------------------------| x 6
3-------------------------------------------------------|
4-------------------------------------------------------|
5-------------------------------------------------------|
6--0--0-2-1-0--0-2-1------------------------------------|

1-------------------------------------------------------|
2-------------------------------------------------------|
3-------------------------------------------------------|
4-------------------------8------------------------5----|
5-------------------------8------------------------5----|
6--0--2-1-0--0-2-1-0--0------0--2-1-0--0-2-1-0--0-------|

1-------------------------------------------------------|
2-------------------------------------------------------|
3-------------------------------------------------------|
4-------------------------------------------------------|
5-------------------------------------------------------|
6--0--2-1-0--0-2-1-0--0-0-1-0-0-2-0-0-3-----------------|
aca sigue como el principio y s vuelve a reptir





Calificar esta versión:
Aviso: Este fichero es trabajo propio de su transcriptor y representa su interpretación personal de la canción. El material contenido en esta página es para exclusivo uso privado, por lo que se prohibe su reproducción o retransmisión, así como su uso para fines comerciales.
Más versiones de Walk, Pantera
Walk
tablatura
Walk (ver 2)
tablatura
Walk (ver 3)
tablatura
Walk (ver 4)
tablatura
Walk (ver 5)
tablatura
Walk
bajo
Walk (ver 2)
bajo
Descubre más canciones de Pantera