Blew, Nirvana (tablatura) (ver 3)

Autor: XxWhatsernamExX | 27087 visualizaciones

e|--------------------------------------------------------------| 
B|--------------------------------------------------------------| 
G|--------------------------------------------------------------| 
D|-1---1--3--4--4--3---------1--1---3--3------------------------| 
A|---3----------------------------3-----------------------------| 
E|--------------------------------------------------------------|

If you wouldn't mind I would like to blew
If you wouldn't mind I would like to lose
If you wouldn't care I would like to leave
If you wouldn't mind I would like to breathe



D*5 F5               D*5         F5      D*5      F*5
Is     there another reason for your    stain
D*5    F5                  D*5             F5                D*5    F*5
Could you believe who     we knew stress or    strain
D*5   F5      D*5                F5                 D*5       G5
Here is another  word that rhymes with shame





e|--------------------------------------------------------------|
B|--------------------------------------------------------------| 
G|--------------------------------------------------------------| 
D|-1---1--3--4--4--3---------1--1---3--3------------------------| 
A|---3----------------------------3-----------------------------| 
E|--------------------------------------------------------------|

If you wouldn't mind I would like to blew
If you wouldn't mind I would like to lose
If you wouldn't care I would like to leave
If you wouldn't mind I would like to breathe




D*5 F5               D*5         F5      D*5      F*5
Is     there another reason for your    stain
D*5    F5                  D*5             F5                D*5    F*5
Could you believe who     we knew stress or    strain
D*5   F5      D*5                F5                 D*5       G5
Here is another  word that rhymes with shame



SOLO ...


D*5 F5               D*5         F5      D*5      F*5
Is     there another reason for your    stain
D*5    F5                  D*5             F5                D*5    F*5
Could you believe who     we knew stress or    strain
D*5   F5      D*5                F5                 D*5       G5
Here is another  word that rhymes with shame







e|----------------------| 
B|----------------------| 
G|----------------------| 
D|----1--3--4--4--3-----| 
A|--3-------------------| 
E|----------------------|

You could anything
You could anything
...


Comentarios del colaborador: El solo no lo puse TODAVIA :)

Calificar esta versión:
Aviso: Este fichero es trabajo propio de su transcriptor y representa su interpretación personal de la canción. El material contenido en esta página es para exclusivo uso privado, por lo que se prohibe su reproducción o retransmisión, así como su uso para fines comerciales.
Más versiones de Blew, Nirvana
Blew
tablatura
Blew (ver 2)
tablatura
Blew (ver 3)
tablatura
Blew
bajo
Descubre más canciones de Nirvana