Blew, Nirvana (tablatura) (ver 2)

Autor: heart-shaped_boxi | 31793 visualizaciones

_____________________________________________________________________________

Blew 
_____________________________________________________________________________



INTRO
e----------------------------------------------------------------------------
b----------------------------------------------------------------------------
g----------------------------------------------------------------------------
d--0--3--5--6--6--5--3--0--5--5--3--0--3--5--6--6--5--3--0--5--5--3----------
a--0--3--5--6--6--5--3--0--5--5--3--0--3--5--6--6--5--3--0--5--5--3----------
e--0--3--5--6--6--5--3--0--5--5--3--0--3--5--6--6--5--3--0--5--5--3----------
 
VERSE
e----------------------------------------------------------------------------
b----------------------------------------------------6-----------------6-----
g------------------)-(-------------------------------4-----------------4-----
d-----3--5--5--5--5--(5)--3--3/5--5--3~~---53/5--5--5-------53/5--5--5-----
a--5-------------------------------------------------------------------------
e--------------------------------------------------------0----------------0--

e----------------------------------------------------------------------------
b----------------------------------------------------6-----------------6-----
g------------------)-(-------------------------------4-----------------4-----
d-----3--5--5--5--5--(5)--3--3/5--5--3-----53/5--5--5-------53/5--5--5-----
a--5------------------------------------5------------------------------------
e--------------------------------------------------------0----------------0--

CHORUS
e----------------------------------------------------------------------------
b----------------------------------------------------------------------------
g----------------------------------------------------------------------------
d--3--5--5--5--3--3-3--3--5--5--3--6-----------------------------------------
a--3--5--5--5--3--3-3--3--5--5--3--6-----------------------------------------
e--3--5--5--5--3--3-3--3--5--5--3--6-----------------------------------------

play that 2 times, then
e----------------------------------------------------------------------------
b----------------------------------2-2-2-2-2-2-2-2-2-2-2-2-2-2-2-2-----------
g----------------------------------2-2-2-2-2-2-2-2-2-2-2-2-2-2-2-2-----------
d--3--5--5--5--3--3-3--3--5--5--3--2-2-2-2-2-2-2-2-2-2-2-2-2-2-2-2-----------
a--3--5--5--5--3--3-3--3--5--5--3--0-0-0-0-0-0-0-0-0-0-0-0-0-0-0-0-----------
e--3--5--5--5--3--3-3--3--5--5--3--------------------------------------------

SOLO
e----)---)(---------------------------------)---------)--------)-------------
b--10--10--(10)--10--10--10--10--8--0--8--10--(10)--10~~~10--10--10--10--8--0
g----------------------------------------------------------------------------
d----------------------------------------------------------------------------
a----------------------------------------------------------------------------
e----------------------------------------------------------------------------

e----------------------------------------------------------------------------
b-----------------8--10--10/13--12~~-(12)--12/15--15--15/17--17--15----------
g--8--10--8--10------------------------------------------------------15--15--
d----------------------------------------------------------------------------
a----------------------------------------------------------------------------
e----------------------------------------------------------------------------

e----------------------------------------------------------------------------
b--18-(18)-18--18--18--18--18---(18)--18~~~~18~~~~18--16--1615--1513--15---
g-----------------(18)----(18)--(18)-----------------------------------------
d----------------------------------------------------------------------------
a----------------------------------------------------------------------------
e----------------------------------------------------------------------------

e----------------------------------------------------------------------------
b--13^15^13^0--11/12--13--13~--11--------------------------------------------
g---------------------------------1211--11--9--10--10--10--8--10--10--10--8-
d----------------------------------------------------------------------------
a----------------------------------------------------------------------------
e----------------------------------------------------------------------------

e----------------------------------------------------------------------------
b-----------------------------------------------------------------11--11--11-
g------------------8--8--10--10--8-----------------8--10--10--10-------------
d--108--0--8--10-------------------10--8--10--10----------------------------
a----------------------------------------------------------------------------
e----------------------------------------------------------------------------

e----------------------------------------------------------------------------
b--11--11--11--11--11--11---------------------------------------------------
g----------------------------------------------------------------------------
d----------------------------------------------------------------------------
a----------------------------------------------------------------------------
e----------------------------------------------------------------------------
 
OUTRO
e----------------------------------------------------------------------------
b----------------------------------------------------------------------------
g----------------------------------------------------------------------------
d--0--3--5--6--6--0---0--3--5--6--6--0---------------------------------------
a--0--3--5--6--6--0---0--3--5--6--6--0---------------------------------------
e--0--3--5--6--6--0---0--3--5--6--6--0---------------------------------------

play that 7 times then end with
e----------------------------------------------------------------------------
b----------------------------------------------------------------------------
g----------------------------------------------------------------------------
d--0--3--5--6--6/----------------------------------------------------------
a--0--3--5--6--6/----------------------------------------------------------
e--0--3--5--6--6/----------------------------------------------------------

y por las dudas tambien pongo la letra

If you wouldn't mind I would like to blew
If you wouldn't mind I would like to lose
If you wouldn't care I would like to leave
If you wouldn't mind I would like to breathe

Is there another reason for your stain?
Could you believe who we knew stress or strain?
Here is another word that rhymes with shame

You could do anything 

Calificar esta versión:
Aviso: Este fichero es trabajo propio de su transcriptor y representa su interpretación personal de la canción. El material contenido en esta página es para exclusivo uso privado, por lo que se prohibe su reproducción o retransmisión, así como su uso para fines comerciales.
Más versiones de Blew, Nirvana
Blew
tablatura
Blew (ver 2)
tablatura
Blew (ver 3)
tablatura
Blew
bajo
Descubre más canciones de Nirvana