Blew, Nirvana (bajo)

Autor: mauri634 | 38260 visualizaciones

Nirvana -> Blew (Bleach)

Intro (6x)
G:------------------------------------------------------
D:------------------------------------------------------
A:------------------------------------------------------
E:0-3-5-5-6-6-5-----------------------------------------

"If you wouldn't mind............(8x)
G:------------------------------------------------------
D:------------------------------------------------------
A:------------------------------------------------------
E:0-3-5-5-6-6-5-33-0-3-5-5------------------------------

"Is it another............." (3x)
G:------------------------------------------------------
D:------------------------------------------------------
A:------------------------------------------------------
E:3-5-5-5-3-0-3-5-5-3-6---------------------------------

Solo (2x)
G:------------------------------------------------------
D:------------------------------------------------------
A:------------------------------------------------------
E:00-3-5-5-6-6-5-3-3-0-3-5-5-3-0-3-5-5-6-6-5-6-5-3-0-00--

G:-----------------------------------------------------------------------------------------------
D:-----------------------------------------------------------------------------------------------
A:------------3-0-3-5-5-5-3-------------3-0-3-5-55-3-------------3-0-3-555-3-----------------------
E:00-3-5-5-6-6-----------5-0-3-5-5-6-6------------5-0-3-5-5-6-6---------5-0-3-5-5-6-6-5-6-5-3-0

Gracias y Provecho :D
link original en comentarios

Comentarios del colaborador: sacada de aqui http://tabs.ultimate-guitar.com/n/nirvana/blew_btab.htm

Calificar esta versión:
Aviso: Este fichero es trabajo propio de su transcriptor y representa su interpretación personal de la canción. El material contenido en esta página es para exclusivo uso privado, por lo que se prohibe su reproducción o retransmisión, así como su uso para fines comerciales.
Más versiones de Blew, Nirvana
Blew
tablatura
Blew (ver 2)
tablatura
Blew (ver 3)
tablatura
Blew
bajo
Descubre más canciones de Nirvana