Por Segunda Vez, Motel (tablatura) (ver 3)

Autor: Anónimo | 24506 visualizaciones



Buena rola, saque lo mas que pude, no esta de mas decir que pues hay
partes que son rasgueos y otros punteos en los versos. los acordes
por arriba del intro y solo es la otra guitarra, cabe notar que no
estaba seguro de algunos de los nombres de los acorde, espero y les sirva.
dudas o comentarios ya saben que hacer.
[Hugo]


Acordes

C#*     G#*
E (0)   E (o)
B  0    B  o
G  4    G  4
D  2    D  2
A  4    A  x
E  x    E  4

Asus2    F#*
E (0)    E (0)
B  0     B  0
G  2     G  2
D  2     D  2
A  0     A  x
E  x     E  2

 E
E-0
B-0
G-1
D-2
A-2
E-0


Intro

  C#*           G#*        Asus2          F#*
e.--------0-----------4----------0-------------0-------------
b.-----0----0-------5---5----------0-0------------0----------
g.-1/2--------2/--4-------4--2/1-----1/2-----2------2--------
d.-----------------------------------------4-----------------
a.-----------------------------------------------------------
E.-----------------------------------------------------------

  C#*           G#*        Asus2          F#*
e.--------0-----------4----------0--------0------------------
b.-----0----0-------5---5----------0-0----0------------------
g.-1/2--------2/--4-------4--2/1-----1/2--2------------------
d.-----------------------------------------------------------
a.-----------------------------------------------------------
E.-----------------------------------------------------------



Asus2          F#*          G#*  Asus2
 No quiero perderte por segunda vez

Asus2         F#*            G#*     Asus2
 mil años ausente y siento que fue ayer

Asus2           F#*         G#*  Asus2
 te ves como siempre, como te soñeee

Asus2            F#*          G#*
 yo se lo que sientes, yo lo se


         C#*          G#*  Asus2
 Y es aqui, en un instanteee

       F#*          C#*
 te siento junto a mi

       G#* Asus2
 como anteees

 F#*        (F#*)
 eres mia, siempre mia


Asus2            F#*        G#*  Asus2
 Yo se que el futuro no promete mas

Asus2                 F#*       G#*
 no encuentro en el mundo mi lugar


         C#*           G#* Asus2
 Y es aqui, en un instanteee

       F#*          C#*
 te siento junto a mi

       G#* Asus2   F#*             C#*
 como anteees, y aunque quieres mentir

        G#* Asus2
 no lo haceees

 F#*        (F#*)
 eres mia, siempre mia

                        SOLO

        Asus2          F#*         G#*            Asus2
e.------9--7-5-4-------9--7-5-4---4---4---5---5---------------
b.-9h10-----------9h10----------5---5---5---5---5------9------
g.------------------------------------------------------------
d.-------------------------------------------------9/7--------
a.------------------------------------------------------------
E.------------------------------------------------------------
        Asus2                 F#*
e.------9-7-------12----12----12----11----11----14------------
b.-9H10-----10/12----12----12----12----12----12----12---------
g.------------------------------------------------------------
d.------------------------------------------------------------
a.------------------------------------------------------------
E.------------------------------------------------------------
   G#*
e.-------12----16*--------------------------------------------
b.-12/14----14------------------------------------------------
g.------------------------------------------------------------
d.------------------------------------------------------------
a.------------------------------------------------------------
E.------------------------------------------------------------



        C#*           G#*  Asus2
 Y es aqui, en un instanteee

       F#*          C#*
 te siento junto a mi

       G#* Asus2
 como anteees


        C#*           G#*  Asus2
 Y es aqui, en un instanteee

       F#*          C#*
 te siento junto a mi

       G#* Asus2  F#*  E
 como anteees

MODIFICACION A LA TRANSCRIPCION DE:
gerardo antonio padilla hernandez (the_punisherito87@hotmail.com)
**********************************************************************





Calificar esta versión:
Aviso: Este fichero es trabajo propio de su transcriptor y representa su interpretación personal de la canción. El material contenido en esta página es para exclusivo uso privado, por lo que se prohibe su reproducción o retransmisión, así como su uso para fines comerciales.
Más versiones de Por Segunda Vez, Motel
Por Segunda Vez
acordes
Por Segunda Vez
tablatura
Por Segunda Vez (ver 2)
tablatura
Por Segunda Vez (ver 3)
tablatura
Descubre más canciones de Motel