Por Segunda Vez, Motel (tablatura)

Autor: Anónimo | 46018 visualizaciones



Ke roio a todos!! ya tenia ratillo ke no subia una rola pero ps
aki les pongo una de motel de su viejo album ke la vdd esta bn pro
la rola y ps kreo ke mi transcripcion si le da un aire ala rola
original... :d espero y les agrade!

"x" palm mute (silenciar con la palma de la mano)
"()" tocar muy bajito la nota
"1"arpegio numero 1 , "2" Arpegio numero 2
NOTA: EL ACORDE Asus2/F# no estoy muy seguro si es asi, haci ke
pondre un akorde muy similar a ese simplemente cambia la nota del
bajo ke seria F# a F ke seria asi:
ahi vean kual les agrada mas jeje ;p


Asus2/F
 0
 0
 2
 2
 0
 1
Acordes:
         F#7/E  F#7/G#   Asus2  Asus2/F#
1era      0       0        0      0
2nda      0       0        0      0
3era      4       4        2      2
4ta       2       2        2      2
5ta       4       0        0      0
6ta       0       4        0      2

Nota: la cancion empieza arpegiando y ps aki les tengo los arpegios
de la rola

En todos hacen lo mismo exepto por Asus2

F#7/E                Asus2 "1"          Asus2 "2"

e-----x---------    e-----x----------    e-----x---0------
B-0---x-0---0---    B-0---x-0----0---    B-0---x-0--------
G-4---x-4--4--4-    G-2---x-2---2--2-    G-2---x-2----2---
D---2-x---2-----    D---2-x---2------    D---2-x--------2-
A-4---x-4-------    A-0---x-0--------    A-0---x-0--------
E-----x---------    E-----x----------    E-----x----------



Intro:
 F#7/E          F#7/G#      Asus2          Asus2/F#
e-------0----------0-4-0---------0--------------0------
B-----0---0------0--------0-----------------------0----
G--1h2------2-----------------2h1----1-2/4--1h2-----2--
D------------------------------------------------------
A------------------------------------------------------
E------------------------------------------------------
 F#7/E        F#7/G#       Asus2         Asus2/F#
e-------0--------0-4-0----------0---------0-
B-----0---0----0--------0-----------------0-
G--1h2------2---------------2h1----1-2/4--2-
D-----------------------------------------2-
A-----------------------------------------0-
E-----------------------------------------2-

Asus2"1"        Asus2/F#
  No quiero perderte

      F#7/E    Asus2"2"
por segunda   vez

Asus2"1"     Asus2/F#
 mil años ausente

           F#7/E    Asus2"2"
y siento que fue  ayer

(AKI YA EMPIEZA A RASGUEAR)

Asus2          Asus2/F#
te ves como siempre

     F#7/E    Asus2
como te      soñe

Asus2          Asus2/F#
yo se lo que sientes

       F#7/E
yo lo se

CORO:

        F#7/E       F#7/G#     Asus2
y es aqui en un instanteeeeee eee

Asus2/F#             F#7/E
te siento junto a mi

        F#7/G#      Asus2
como anteeeeeeeeee eees

Asus2/F#    Asus2/F#
eres mia siempre mia


Asus2          Asus2/F#
yo se que el futuro

       F#7/E   Asus2
no promete    mas

Asus2               Asus2/F#
no encuentro en el mundo

       F#7/E
 mi lugar




    F#7/E       F#7/G#         Asus2
y es aqui en un instanteeeeee eee

Asus2/F#             F#7/E
te siento junto a mi

        F#7/G#      Asus2
como anteeeeeeeeee eees

Asus2/F#              F#7/E
y aunque quieres mentir

         F#7/G#      Asus2
no lo haceeeeeeeeee eees

Asus2/F#    Asus2/F#
eres mia siempre mia

SOLO: FORMA 1
      Asus2          Asus2/F#   F#7/E               Asus2
e-4h5--9-7-5-4--4h5-9-7-5-4--4---4---5p0-5p0-----4-
B---------------------------5--5---5---------------
G---------------------------------------------4/2--
D--------------------------------------------------
A--------------------------------------------------
E--------------------------------------------------
      Asus2             Asus2/F#                 F#7/E
e-4h5-9-7-5/7/12--7-12-7-12--11-11--14-7/12-12-9-16-(12)-
B--------------------------------------------------------
G--------------------------------------------------------
D--------------------------------------------------------
A--------------------------------------------------------
E--------------------------------------------------------

SOLO FORMA 2
       Asus2           Asus2/F#     F#7/E               Asus2
e------9---------------9----------------------------------
B-9h10---12-10-9--9h10---12-10-9---9---9---10--10-------9-
G--------------------------------9---9---9---9----9-------
D----------------------------------------------------9/7--
A---------------------------------------------------------
E---------------------------------------------------------
       Asus2          Asus2/F#                    F#7/E
e------9---------12---12---12-11-11-14------------16-(12)-
B-9h10---12-10/12---12---12------------12/17-17-14--------
G--------------------------------------------------------
D---------------------------------------------------------
A---------------------------------------------------------
E---------------------------------------------------------

(AKI VUELVE A ARPEGIAR PERO SOLO HASLO DE ESTA FORMA)

e-------
B----0--
G---2---
D--2----
A-0-----
E-------


    F#7/E       F#7/G#         Asus2
y es aqui en un instanteeeeee eee

Asus2/F#             F#7/E
te siento junto a mi

        F#7/G#      Asus2
como anteeeeeeeeee eees


F#7/E       F#7/G#         Asus2
y es aqui en un instanteeeeee eee

Asus2/F#             F#7/E
te siento junto a mi

        F#7/G#      Asus2   Asus2/F#
como anteeeeeeeeee eees



FIN

Espero y haya sido de su agrado ;p no es una kancion dificil
realmente esta muy facil y espero y la puedan tokar komo mi
transcripcion o mas bn ke le entiendan jeje lo trate de explicar
lo mejor ke puedo pero haber ke show jejej ;p bueno eso es todo
y ps alguna correcion o komentario solo haganmelo saber a mi
korreo : cartablanca_evitaelexeso-15@hotmail.com ;p





Calificar esta versión:
Aviso: Este fichero es trabajo propio de su transcriptor y representa su interpretación personal de la canción. El material contenido en esta página es para exclusivo uso privado, por lo que se prohibe su reproducción o retransmisión, así como su uso para fines comerciales.
Más versiones de Por Segunda Vez, Motel
Por Segunda Vez
acordes
Por Segunda Vez
tablatura
Por Segunda Vez (ver 2)
tablatura
Por Segunda Vez (ver 3)
tablatura
Descubre más canciones de Motel