Por Segunda Vez, Motel (tablatura) (ver 2)

Autor: Anónimo | 27723 visualizaciones



INTRO: E - B - E - A  (X2)


A                       E B    A
No quiero perderte x segunda vez
A                         E   B    A
Mil años ausente y siento q fue ayer
A                         E  B  A
Te vez como siempre, como te soñe
A                          E
Yo se lo q sientes, yo lo sé

      A5             E   A5
Y es aquí en un instante
                   E          A5
Te siento junto a mi, como antes
E             A5
Eres mía, siempre mía

A                      E  B   A
Yo se q el futuro no promete mas
A                              E
No encuentro en el mundo mi lugar

A5                   E  A5
Y es aquí en un instante
                  E           A5           E
Te siento junto a mi, como antes (como antes)
      A5             E            A5
Y aunque quieres mentir, no lo haces
E             A5
Eres mia, siempre mía


     E                      A            E           A
e/-------9-7--------/------9-7----------------------------------------
B/--9-10------10-9--/-9-10------10-9----9------9---10---10----------9-
G/------------------/-----------------9---9--9---9----9----9---4--2---
D/------------------/-------------------------------------------------
A/------------------/-------------------------------------------------
E/------------------/-------------------------------------------------

       E               B                   E                         A
e/--------9-7----------12------11---11---14--------12--------16-------
B/--9-10-------10--12------12-----------------14--------14------------
G/--------------------------------------------------------------------
D/--------------------------------------------------------------------
A/--------------------------------------------------------------------
E/--------------------------------------------------------------------



 A5                   E
Y es así, en un instante
A5                E           A5   E
Te siento junto a mi, como antes

      A5            E
Y es aquí en un instante (en un instante)
   A5             E            A5  A5  E
Te siento junto a mi como antes


    A5
e/---0--/
B/---0--/
G/---2--/
D/---2--/
A/---0--/
E/---0--/





Calificar esta versión:
Aviso: Este fichero es trabajo propio de su transcriptor y representa su interpretación personal de la canción. El material contenido en esta página es para exclusivo uso privado, por lo que se prohibe su reproducción o retransmisión, así como su uso para fines comerciales.
Más versiones de Por Segunda Vez, Motel
Por Segunda Vez
acordes
Por Segunda Vez
tablatura
Por Segunda Vez (ver 2)
tablatura
Por Segunda Vez (ver 3)
tablatura
Descubre más canciones de Motel