Dime Ven, Motel (tablatura)

Autor: christian3.2 | 29693 visualizaciones



INTRO
e|--------------------------------------------------------------
B|--1-1-1--0-0-0---------1-1-1--0-0-0---------------------------
G|----------------0-0-0----------------0-0----------------------
D|-------------------------------------------------------------
A|--------------------------------------------------------------
E|--------------------------------------------------------------

e|--------------------------------------------------------------
B|--1-1-1--0-0-0---------1-1-1--0-0-0---------------------------
G|-------------------------------------0-0----------------------
D|----------------2-2-2-----------------------------------------
A|--------------------------------------------------------------
E|--------------------------------------------------------------


e|--------------------------------------------------------------
B|--1-1-1--0-0-0--1-1-1-1-/s-3-3-3--1-1-0-----------------------
G|--------------------------------------------------------------
D|--------------------------------------------------------------
A|--------------------------------------------------------------
E|--------------------------------------------------------------



C                   Em
Siento que me tocas sin ver
                     Am
que te apareces detras de la pared
 Fm
detras de mis recuerdos

   C                  Em
y siento las caricias de ayer
                       Am
de aquellos labios que busco sin saber
   Fm
te quiero ver por dentro


  Dm                  Em
y entre las llamadas busque
                     F
un mensaje oculto encontre
          G
y es que quiero saber

CORO
 C
dime que me crees dime que me crees
 Am
dime que sientes cuando me ves
 F
o cuando me voy cuando no estoy
 Fm
dime ven ven dime ven ven dime

 C
dime otra vez nunca te olvide
 Am
dime que quieres volverme a ver
 F
sin importar lo que vendra
 Fm
dime ven ven dime ven ven dime


(aki se repite el intro)
e|--------------------------------------------------------------
B|--1-1-1--0-0-0---------1-1-1--0-0-0---------------------------
G|----------------0-0-0----------------0-0----------------------
D|--------------------------------------------------------------
A|--------------------------------------------------------------
E|--------------------------------------------------------------

e|--------------------------------------------------------------
B|--1-1-1--0-0-0---------1-1-1--0-0-0---------------------------
G|-------------------------------------0-0----------------------
D|----------------2-2-2-----------------------------------------
A|--------------------------------------------------------------
E|--------------------------------------------------------------


e|--------------------------------------------------------------
B|--1-1-1--0-0-0--1-1-1-1-/s-3-3-3--1-1-0-----------------------
G|--------------------------------------------------------------
D|--------------------------------------------------------------
A|--------------------------------------------------------------
E|--------------------------------------------------------------



C               Em
cada espacio cada lugar
                  Am
cada palabra inmortal que has repitido
     Fm
grabo en mi cuerpo tu sonido

 C                 Em
cada vez que quiero soñar
                  Am
solo hace falta pensar en el inicio
                      Fm
de lo que nos traera el destino

 Dm                   Em
busco en las palabras la fe
                     F
las caricias que desde ayer
       G
porque quiero saber
                    (coro)

 C
dime que me crees dime que me crees
 Am
dime que sientes cuando me ves
 F
o cuando me voy cuando no estoy
 Fm
dime ven ven dime ven ven dime

 C
dime otra vez nunca te olvide
 Am
dime que quieres volverme a ver
 F
sin importar lo que vendra
 Fm
dime ven ven dime ven ven dime


(aki entra el solo)

 solo
e|--------------------------------------------------------------
B|-------------------------------------------------------------
G|-5---5---5--7b-7b-5-~-5----5---5--7b-7b-7bb-5--7-7-7-6-6-6-0-|
D|-----7----7-------------------7----7--------------------------
A|-------------------------------------------------------------
E|-------------------------------------------------------------

(en esta parte solo rasguea los acordes una sola vez)

 C
dime que me crees dime que me crees
 Am
dime que sientes cuando me ves
 F
o cuando me voy cuando no estoy


(aki empieza a rasgar normal)
Fm
dime ven ven dime ven ven dime


 C
dime otra vez nunca te olvide
 Am
dime que quieres volverme a ver
 F
sin importar lo que vendra
 Fm
dime ven ven dime ven ven dime



(para terminar es de nuevo el intro pero sin la ultima parte
y terminas  en F)


e|--------------------------------------------------------------------|
B|--1-1-1--0-0-0---------1-1-1--0-0-0---------------------------------|
G|----------------0-0-0----------------0-0----------------------------|
D|--------------------------------------------------------------------|(X2)
A|--------------------------------------------------------------------|
E|--------------------------------------------------------------------|

e|--------------------------------------------------------------------|
B|--1-1-1--0-0-0---------1-1-1--0-0-0---------------------------------|
G|-------------------------------------0-0----------------------------|
D|----------------2-2-2-----------------------------------------------|
A|--------------------------------------------------------------------|
E|--------------------------------------------------------------------|





Calificar esta versión:
Aviso: Este fichero es trabajo propio de su transcriptor y representa su interpretación personal de la canción. El material contenido en esta página es para exclusivo uso privado, por lo que se prohibe su reproducción o retransmisión, así como su uso para fines comerciales.
Más versiones de Dime Ven, Motel
Dime Ven
acordes
Dime Ven (ver 2)
acordes
Dime Ven (ver 3)
acordes
Dime Ven
tablatura
Dime Ven (ver 2)
tablatura
Dime Ven
bajo
Dime Ven (ver 2)
bajo
Dime Ven
teclado
Descubre más canciones de Motel