Dime Ven, Motel (bajo)

Autor: Anónimo | 20893 visualizaciones



*(Esta es una correcion pero solamente para invertir la tablatura
  el unico error que tenia es que la habia puesto al reves)
Intro

G---------------------------------------
D---------------------------------------
A--33333333-------------------88888888--
E-----------55555555-11111111-----------


Verso

G-------------------------------------------
D-------------------------------------------
A--3-3-------------------3-3--57-7------88--
E-------0-0--235-5--1-1-------------55------

Inicio del coro

G------------------------------------------
D------------------------------------------
A--5-55-5--7-77-7-8-88-8-10-101010---------
E---------------------------------33333----

Coro

G---------------------------------------------------------------------
D--------------------------------------------------------------------- X 2
A-333333-------------------8-8-8--10-10-10--11-11-11--10-10-10--8-8-8-
E---------5555555-111111----------------------------------------------

Solo o arpegio (es igual que el coro)

G---------------------------------------
D---------------------------------------
A--33333333-------------------88888888--
E-----------55555555-11111111-----------

Parte lenta sin bataca es igual

G---------------------
D---------------------
A--3--------88888888--
E-----5--1------------

Eso es todo, espero les agrade.





Calificar esta versión:
Aviso: Este fichero es trabajo propio de su transcriptor y representa su interpretación personal de la canción. El material contenido en esta página es para exclusivo uso privado, por lo que se prohibe su reproducción o retransmisión, así como su uso para fines comerciales.
Más versiones de Dime Ven, Motel
Dime Ven
acordes
Dime Ven (ver 2)
acordes
Dime Ven (ver 3)
acordes
Dime Ven
tablatura
Dime Ven (ver 2)
tablatura
Dime Ven
bajo
Dime Ven (ver 2)
bajo
Dime Ven
teclado
Descubre más canciones de Motel