Dime Ven, Motel (bajo) (ver 2)

Autor: Anónimo | 44335 visualizaciones



* Esta también es una corrección un poco más detallada que la anterior,
 espero les guste...saludos !


Intro

G------------------------------------
D-------------------77777777---------
A—33333333—88888888----------88888888
E------------------------------------

Verso

G-------------------------------------------
D-------------------------------------------
A--3-3-----------------3-3—357-7----88-8-7/5
E------0-0--235-5--1-1-----------55---------

Inicio de coro

G----------------------------------------------------------
D----------------------------------------------------------
A-5-55-55-5555--7-77-77-7777--8-88-88-8888--10-101010/-----
E-----------------------------------------------------33333

Coro

G------------------------------------------------------------------
D------------------------------------------------------------------
A-333333----------------8-8-8--10-10-10--11-11-11--10-10-10--8-8-10 X2
E--------5555555-111111--------------------------------------------

Solo

G--------------------------------------------
D--------------------------------------------
A—33333333------------11-11-11-11-11-11-11-11
E-----------55555555------------------------

Parte lenta

G---------------------
D---------------------
A--3--------88888888--
E-----5--1------------

Final (parecido al intro)

G-------------------------------------------
D-------------------77777777----------------
A—33333333—88888888----------(8)-(8)—(8)-(8) dejar sonar
E-------------------------------------------

Saludos desde Nuevo León ;)

tab by: Necros89
Si tienen alguna duda les dejo mi mail (azathoth_999@hotmail.com)





Calificar esta versión:
Aviso: Este fichero es trabajo propio de su transcriptor y representa su interpretación personal de la canción. El material contenido en esta página es para exclusivo uso privado, por lo que se prohibe su reproducción o retransmisión, así como su uso para fines comerciales.
Más versiones de Dime Ven, Motel
Dime Ven
acordes
Dime Ven (ver 2)
acordes
Dime Ven (ver 3)
acordes
Dime Ven
tablatura
Dime Ven (ver 2)
tablatura
Dime Ven
bajo
Dime Ven (ver 2)
bajo
Dime Ven
teclado
Descubre más canciones de Motel