Mujer, Los Rancheros (tablatura) (ver 2)

Autor: Anónimo | 29676 visualizaciones

Nadia esta es la mejor cancion k hay para decir lo k siento por ti

"Estas notas son para toda la cancion"

Intro:MI - SOL#m - LA - SI (Riff)
   MI - SOL#m - LA - SI

Como un loco en la cornisa
que intenta saltar
desde la torre mas alta
que hay en el lugar,(riff)
cuando un sueño se termina
y uno empieza a despertar
necesita irse lejos
para volver a empezar.

MI - SOL#m - LA - SI (x2) Riff

Sin sentido fue mi vida
hasta que te vi
iluminada en mil colores
parada frente a mí,
quisiera saber de ti
salir a caminar
por las calles olvidadas
por los días que vendrán.

Coro:
Mujer..., mujer...
si existe un paraíso
existe en ti mujer...(Rep)

Punteo:

1)------------|----------|-----------|---------|--------------------
2)--8-10-12r~-|-10-8-7v~-|-7-8-10----|-----7---|---8-12-10-8-10--8~-
3)-9----------|----------|-------7r~-|-9-7--9~-|-9-------------9----
4)------------|----------|-----------|---------|--------------------
5)------------|----------|-----------|---------|--------------------
6)------------|----------|-----------|---------|--------------------

1)-------12-10--10----------------|--------------|---10-14v~-15-12--
2)---8-12-----12--12-10-8-12-10-8-|--------------|-12---------------
3)-9------------------------------|---7----------|------------------
4)--------------------------------|--9--10-9-7~--|------------------
5)--------------------------------|--------------|------------------
6)--------------------------------|--------------|------------------

1)---10-12p14-14~15-12-10-12-|---12-15-21~-20-19-17-
2)-12------------------------|-12-------------------
3)---------------------------|----------------------
4)---------------------------|----------------------
5)---------------------------|----------------------
6)---------------------------|----------------------

1)---14-15-17-14-15-14--14-15p14---|----------------
2)-15-----------------15--------15-|-13-11-9-11-9v~-
3)---------------------------------|----------------
4)---------------------------------|----------------
5)---------------------------------|----------------
6)---------------------------------|----------------


Con su boca de cemento
hierros, luces y alquitrán
todos corren por su vida
y nadie mira a los demás,
necesito verte hoy
en cualquier lugar
necesito ir contigo
a la eternidad.

Rep Coro aahhh aahh uohhh...

Mujer, mujer
si existe un paraíso
existe en ti mujer... mujer...
"Termina en MiM"

Riff:
1)-4-2-0-2-(0)
2)-4-4-0-2-(0)
Calificar esta versión:
Aviso: Este fichero es trabajo propio de su transcriptor y representa su interpretación personal de la canción. El material contenido en esta página es para exclusivo uso privado, por lo que se prohibe su reproducción o retransmisión, así como su uso para fines comerciales.
Más versiones de Mujer, Los Rancheros
Mujer
acordes
Mujer (ver 2)
acordes
Mujer
tablatura
Mujer (ver 2)
tablatura
Mujer
bajo
Descubre más canciones de Los Rancheros