Mujer, Los Rancheros (bajo)

Autor: Anónimo | 32867 visualizaciones

AYYYYYYYYYYYYYYYYYYYYYY, me da cólera ver que algunas personas
con tal de figurar en La Cuerda, hacen cualquier cosa, a ver Uds.
creen que una canción como "Mujer" va a tener una bajo tan simple
como la anterior tabalatura para bajo, no es por creermela de gran
cosa, pero es asi. Es por eso que me veo en la urgencia de colgar
un bajo más parecido al original.

Bueno

Vamos con el bajo

Tienes que escuchar bien la canción para darle el ritmo, tiene unas
bajadas rápidas, asi que practica tu agilidad. Ahhhh y por cierto,
esta canción se la quiero dedicar a la chica que curo mis heridas,
me devolvio la esperanza en el amor, para ti Diana, "sin sentido,
fue mi vida, hasta que te vi, iluminada en mil colores, parada
frente a mi!"

ºººINTROººº

      E         G#m       A           B
G|----------|---------|---------|---------------|
D|----------|---------|---------|-------------9-|
A|----------|---------|---------|-------6--9----|
E|-0--00-0--|-4-44-4--|-5-55-5--|--7--7---------|

ºººPRIMERA ESTROFAººº

Como loco en la corniza----------------------------
------------que intenta saltar---------------------
-----------------------desde la torre mas alta-----
--------------------------------que hay en el lugar

      E         G#m       A           B
G|----------|---------|---------|---------------------|
D|----------|---------|---------|------------9--------|
A|----------|---------|---------|-------6--9---(9)----|
E|-0--00-0--|-4-44-4--|-5-55-5--|--7--7-----------(6)-|

Cuando un sueño se termina---------------------------
------------y uno empiza a despertar-----------------
----------------------necesita irse lejos------------
--------------------------------para volver a empezar, ahahah

    E         G#m       A           B
G|----------|---------|---------|-----------------|
D|----------|---------|---------|-----------------|
A|----------|---------|---------|------6-7-9-7-6--|
E|-0--00-0--|-4-44-4--|-5-55-5--|-7-7-9-----------|

ºººINSTRUMENTALººº

      E         G#m       A               B
G|----------|---------|---------|-----------------------|
D|----------|---------|---------|------------7-9-11-9-7-|
A|----------|---------|---------|---------7-9-----------|
E|-0--00-0--|-4-44-4--|-5-55-5--|-7--7-10---------------|

ºººSEGUNDA ESTROFAººº

Sin sentido fue mi vida---------------------------
------------hasta que te vi-----------------------
----------------------iluminada en mil colores----
--------------------------------parada frente a mi

      E         G#m       A             B
G|----------|---------|---------|------------------|
D|----------|---------|---------|------------------|
A|----------|---------|---------|---------6-9-6----|
E|-0--00-0--|-4-44-4--|-5-55-5--|-7--7-9--------9--|

Quisiera saber de ti-------------------------------------
------------salir a caminar------------------------------
----------------------por las calles olvidadas-----------
---------------------------------por los dias que vendrán
      E         G#m       A               B
G|----------|---------|---------|-----------------------|
D|----------|---------|---------|------------7-9-11-9-7-|
A|----------|---------|---------|---------7-9-----------|
E|-0--00-0--|-4-44-4--|-5-55-5--|-7--7-10---------------|

ºººCOROººº

Mujer-----------------------------------------------
------------mujer-----------------------------------
----------------------si existe el paraiso ---------
--------------------------------existe en ti mujer.-
      E         G#m       A             B
G|----------|---------|---------|--------------------|
D|----------|---------|---------|--------------------|
A|----------|---------|---------|---------6-7-9-6----|
E|-0--00-0--|-4-44-4--|-5-55-5--|-7--7-9----------9--|

Mujer-----------------------------------------------
------------mujer-----------------------------------
----------------------si existe el paraiso ---------
--------------------------------existe en ti mujer.-
      E         G#m       A             B
G|----------|---------|---------|--------------------|
D|----------|---------|---------|--------------------|
A|----------|---------|---------|---------6-7-9-6----|
E|-0--00-0--|-4-44-4--|-5-55-5--|-7--7-9----------9--|
Calificar esta versión:
Aviso: Este fichero es trabajo propio de su transcriptor y representa su interpretación personal de la canción. El material contenido en esta página es para exclusivo uso privado, por lo que se prohibe su reproducción o retransmisión, así como su uso para fines comerciales.
Más versiones de Mujer, Los Rancheros
Mujer
acordes
Mujer (ver 2)
acordes
Mujer
tablatura
Mujer (ver 2)
tablatura
Mujer
bajo
Descubre más canciones de Los Rancheros