Mujer, Los Rancheros (tablatura)

Autor: Anónimo | 41862 visualizaciones

Hola , yo me llamo Juan Garcia Ochoa y esta es la primera transcripcion
 que voy a mandarles .
Esta es la primera por que la cancion es bien seria y ademas me recuerda
a una ex .
 Este Riff  va después del SiM en la parte cantada
 SI 
e ]----4-2--2--]-
B ]-------4--4-]-
G ]------------]-
D ]------------]-
A ]------------]-
E ]------------]-

Solo
Hay partes rápidas y lentas ;aquí yo coloco este símbolo para
indicar las rápidas(*) y este para las lentas(+) , aunque seria
 mejor que escuchen la canción  y se ubiquen .

  (+)                                                (*)
e ]------------]----------]-----------]---------]--------------------]
B ]--8-10-12r~-]-10-8-7v~-]-7-8-10----]-----7---]---8-12-10-8-10--8~-]
G ]-9----------]----------]-------7r~-]-9-7--9~-]-9-------------9----]
D ]------------]----------]-----------]---------]--------------------]
A ]------------]----------]-----------]---------]--------------------]
E ]------------]----------]-----------]---------]--------------------]

    (*)                             (+)
e ]-------12-10--10----------------]--------------]---10-14v~-15-12--]
B ]---8-12-----12--12-10-8-12-10-8-]--------------]-12---------------]
G ]-9------------------------------]---7----------]------------------]
D ]--------------------------------]--9--10-9-7~--]------------------]
A ]--------------------------------]--------------]------------------]
E ]--------------------------------]--------------]------------------]

e ]---10-12p14-14~15-12-10-12-]---12-15-21~-20-19-17-]
B ]-12------------------------]-12-------------------]
G ]---------------------------]----------------------]
D ]---------------------------]----------------------]
A ]---------------------------]----------------------]
E ]---------------------------]----------------------]

   (*)                               (+)
e ]---14-15-17-14-15-14--14-15p14---]----------------]
B ]-15-----------------15--------15-]-13-11-9-11-9v~-]
G ]---------------------------------]----------------]
D ]---------------------------------]----------------]
A ]---------------------------------]----------------]
E ]---------------------------------]----------------]
Esta es por ti Elizabeth
Ya les enviare los apregios de la parte cantada .
Calificar esta versión:
Aviso: Este fichero es trabajo propio de su transcriptor y representa su interpretación personal de la canción. El material contenido en esta página es para exclusivo uso privado, por lo que se prohibe su reproducción o retransmisión, así como su uso para fines comerciales.
Más versiones de Mujer, Los Rancheros
Mujer
acordes
Mujer (ver 2)
acordes
Mujer
tablatura
Mujer (ver 2)
tablatura
Mujer
bajo
Descubre más canciones de Los Rancheros