Contigo, Los Panchos (tablatura) (ver 4)

Autor: Anónimo | 33519 visualizaciones

Que tal amigos, aqui esta el REQUINTO de la cancion
'contigo'. Si por casualidad no le entienden mandenme
un mail y yo les explicare.

(escuchen la cancion para ponerle el tiempo.)
            INTRO

1--13--13--13--16--13--------------
2----------------------14--13------
3------------------------------15--
4----------------------------------
5----------------------------------
6----------------------------------

1----------------13--14------------
2--13x3--14--15--------------------
3----------------------------------
4----------------------------------
5----------------------------------
6----------------------------------

1--14X3--13------------------------
2------------15--14--13--12--------
3----------------------------------
4----------------------------------
5----------------------------------
6----------------------------------

1--15--17--15--17--15--17--15--17--15----------------14--15--15X3--16--17--
2--------------------------------------14X3--15--16------------------------
3--------------------------------------------------------------------------
4--------------------------------------------------------------------------
5--------------------------------------------------------------------------
6--------------------------------------------------------------------------

(QUE NO SE LES OLVIDE, SI NO LE ENTIENDEN MUY BIEN 
 MANDENME UN MAIL)
Calificar esta versión:
Aviso: Este fichero es trabajo propio de su transcriptor y representa su interpretación personal de la canción. El material contenido en esta página es para exclusivo uso privado, por lo que se prohibe su reproducción o retransmisión, así como su uso para fines comerciales.
Más versiones de Contigo, Los Panchos
Contigo
acordes
Contigo (ver 2)
acordes
Contigo
tablatura
Contigo (ver 2)
tablatura
Contigo (ver 3)
tablatura
Contigo (ver 4)
tablatura
Descubre más canciones de Los Panchos