Contigo, Los Panchos (tablatura) (ver 2)

Autor: Anónimo | 33463 visualizaciones

Este es el requinto de la cancion contigo de los
panchos.algunos trios lo tocan en la + 
habria que recorerlo dos trastes hacia arriba 

En sol mayor  Requinto (5 medios tonos arriba)
__      
                                         
   1|--7-7-7-10-7-------------------7-8-----
 ) 2|-------------8-7--------7-8-10---------
   3|-----------------9--8-9----------------
   4|---------------------------------------
 ) 5|---------------------------------------
   6|---------------------------------------
__/


_      
                                         
   1|-10-8-7-----------------10-12-10-12-10-
 ) 2|---------10-8-7------------------------
   3|-----------------9-8-7-----------------
   4|---------------------------------------
 ) 5|---------------------------------------
   6|---------------------------------------
__/


      
                                         
   1|--8-7------7-----------------7-8-------
 ) 2|-------10----10--8-7-8-9-10------------
   3|---------------------------------------
   4|---------------------------------------
 ) 5|---------------------------------------
   6|---------------------------------------
__/


_                            en el final 
                           se toca esto              
   1|---7-8-7-8-9-10----------11---12-------
 ) 2|------------------------------12-------
   3|------------------------------12-------
   4|---------------------------------------
 ) 5|---------------------------------------
   6|---------------------------------------
__/


               Marisol !Te Amo!

 Alguna duda o sujerencia, intercambios requintos de los  
 tres Reyes no duden en mandarme un e-mail.
 Gerardo Lee Calera Reynosa tamps. ( re5to@Latinmail.com)
Calificar esta versión:
Aviso: Este fichero es trabajo propio de su transcriptor y representa su interpretación personal de la canción. El material contenido en esta página es para exclusivo uso privado, por lo que se prohibe su reproducción o retransmisión, así como su uso para fines comerciales.
Más versiones de Contigo, Los Panchos
Contigo
acordes
Contigo (ver 2)
acordes
Contigo
tablatura
Contigo (ver 2)
tablatura
Contigo (ver 3)
tablatura
Contigo (ver 4)
tablatura
Descubre más canciones de Los Panchos