Contigo, Los Panchos (tablatura) (ver 3)

Autor: Anónimo | 44124 visualizaciones

E----------------------------------------------------------
A----------------------------------------------------------
D----------------------------------------------------------
G---------------2-1-2-----------------------2-1-0----------
B-----------1-0-------0-1-3-----------3-1-0----------------
e-0-0-0-3-0-----------------0-1-3-1-0-------------3-5-3-5-3


-----------------------------------
-----------------------------------
-----------------------------------
-----------------------------------
-----3---3-1-0-1-3-----------------
-1-0---0-----------0-1-0-1-0-1-2-3-
Calificar esta versión:
Aviso: Este fichero es trabajo propio de su transcriptor y representa su interpretación personal de la canción. El material contenido en esta página es para exclusivo uso privado, por lo que se prohibe su reproducción o retransmisión, así como su uso para fines comerciales.
Más versiones de Contigo, Los Panchos
Contigo
acordes
Contigo (ver 2)
acordes
Contigo
tablatura
Contigo (ver 2)
tablatura
Contigo (ver 3)
tablatura
Contigo (ver 4)
tablatura
Descubre más canciones de Los Panchos