Rompecabezas, Los Concorde (tablatura)

Autor: choko tavo 183 | 33461 visualizaciones



ESTE ES MI PRIMER TABLATURA ESPERO KE LES LATA Y SE OYE IGUAL KE LA CANCION
Esto va en el bajo:
G-----------0-2-------------0-2-------------0-2-------------0-2-]
D-3-3-3-3-3-----2-2-2-2-2-2-------------------------------------]
A-------------------------------0-0-0-0-0-0-----0-0-0-0-0-0-----]
E---------------------------------------------------------------]
Y pues si quieres sacarla a huevo con la guitarra pues has las mismas
pisadas que vienen aquí arriba 
Después del intro del bajo tocas las siguientes pisadas:
e--------8--------7---------0-]
B-------10--------8---------1-]
G-------10--------9---------2-]
D-------10--------9---------2-]
A-----------------------------]
E-----------------------------]
Nota: Las primeras dos pisadas de aquí arriba las tocas 8 veces c/u y la
tercer pisada la tocas 16 veces, el rasgueo es rápido y de arriba hacia
abajo, y si quieres hacer el efecto que hacen en la canción lo único que
tienes que hacer es que dejen de sonar las cuerdas después de cada rasgueo
(ósea que vas a dejar de apretar las cuerdas que pisas ligeramente)

Y la otra guitarra hace:
e----------------------------------------
B----------------------------------------
G-2---2---4h5-4-2--------2---2---4h5-4-2-   X2
D---2---2---------2--------2---2---------
A----------------------------------------
E----------------------------------------

La otra guitarra sigue haciendo las mismas pisadas durante toda la
canción, solo que cambia el tipo de rasgueo en los coros y se queda
callada en una parte del solo.

El bajeo en el coro también cambia y va así:
G-------------------------------------------------------
D-------------------------------------------------------
A---------------------------------0-0-3-5-7-0-0-0-3-5-7-
E-1-1-1-1-1-1-1-1-0-0-0-0-0-0-0-0-----------------------

Solo:
e-------------
B-------------
G----7b-5b-5-- Y esto se sigue haciendo hasta el final
D-7-7--7------ de la canción que queda solo el bajo tocando
A-------------
E-------------
Y esa es toda la canción, solo tienen que poner un poquito de oído para
que no se confundan, les pondría pasito por pasito como va la canción
pero la neta me da hueva y además tienen que chingarse un poquito
no creen? Jajaja ya si no le entienden mi correo esta hasta haya arriba
por si quieren que les explique bien o por si me la quieren mentar o me
quieren contratar como guitarrista estelar en su banda(jajaja) o yo
que se.





Comentarios del colaborador: ES LO MEJOR KE HE HECHO

Calificar esta versión:
Aviso: Este fichero es trabajo propio de su transcriptor y representa su interpretación personal de la canción. El material contenido en esta página es para exclusivo uso privado, por lo que se prohibe su reproducción o retransmisión, así como su uso para fines comerciales.
Más versiones de Rompecabezas, Los Concorde
Rompecabezas
acordes
Rompecabezas (ver 2)
acordes
Rompecabezas
tablatura
Rompecabezas (ver 2)
tablatura
Descubre más canciones de Los Concorde