Rompecabezas, Los Concorde (acordes)

Autor: Cs@r | 17168 visualizaciones

aameemf


 Q ondas , sta es una muy bna kncion d los concord spero q les gust mi vrsion y p/ cualquier comntario st s  mi correo:
cesar_2_564@hotmail.com



Est es el intro d la kncion q = c tok cuando c empieza a kntar :

6a |-------------------------------------------------------]
5a |-------------------------------------------------------]
4a |------------0-2----------0-2---------0-2-----------0-2-]
3a |---3-3-3-3-3---2-2-2-2-2-------------------------------]
2a |----------------------------0-0-0-0-0----0-0-0-0-0-----]
1a |-------------------------------------------------------]

Y todo lo que nunca fue
y lo que no dejamos ser
tratamos de taparlo con un dedo

F E A 

F              Em
Y todo lo que nunca fue
   Am
y lo que no dejamos ser
F              Em            Am
tratamos de taparlo con un dedo


F                           Em
Y sin embargo vuelvo a empezar
                   Am
no tiene caso esperar
                                               F
nunca pense en consecuencias ya no vuelve a pasar,
                     Em                            Am
ya no soporto los domingos son lo mismo son lo mismo,

es una telenovela que no quiero mirar.

F
¡Ay complot de mujer
        Em
y lo incubre tu piel
Am
eres criminal y delator a la vez
F              Em            Am
tratamos de taparlo con un dedo!


F
Y sigue todo igual
       Em
sigue lento sigue frío
               Am
sigue sin parecer tener algo divino
              F                  Em
es un rompecabezas de miles de piezas
       Am
que ya no quiero armar ya no pretendo armar, no.


F               Em
Y cuando pude estar seguro
     Am
de que sería yo ninguno
   F           Em            Am
volaste como arena con el viento
    F          Em            Am
Trataste de taparlo con un dedo


F                           Em
Y sin embargo vuelvo a empezar
                   Am
no tiene caso esperar
                                               F
nunca pense en consecuencias ya no vuelve a pasar,
                     Em                            Am
ya no soporto los domingos son lo mismo son lo mismo,

es una telenovela que no quiero mirar.


F
El complot de tu piel
       Em
y tu forma de ser
   Am
cometen ese crimen que se llama mujer
    F           Em            Am
y siempre lo tapamos con un dedo.


F
¡Ay complot de mujer
      Em
y tu forma de ser
Am
cometen ese crimen que se llama mujer
     F          Em            Am
y siempre lo tapamos con un dedo!


Las cuerdas dl final son stas:

6a |-------------------------------------------------------]
5a |-------------------------------------------------------]
4a |------------0-2----------0-2---------0-2-----------0-2-]
3a |---3-3-3-3-3---2-2-2-2-2-------------------------------]
2a |----------------------------0-0-0-0-0----0-0-0-0-0-----]
1a |-------------------------------------------------------]

6a |---------------------------------1---]
5a |-------------------------------------]
4a |------------0-2----------0---2-------]
3a |---3-3-3-3-3---2-2-2-2-2-------------]
2a |-------------------------------------]
1a |-------------------------------------]

Spero q les gust, luego les caigo cn mas rolas. 





Calificar esta versión:
Aviso: Este fichero es trabajo propio de su transcriptor y representa su interpretación personal de la canción. El material contenido en esta página es para exclusivo uso privado, por lo que se prohibe su reproducción o retransmisión, así como su uso para fines comerciales.
Más versiones de Rompecabezas, Los Concorde
Rompecabezas
acordes
Rompecabezas (ver 2)
acordes
Rompecabezas
tablatura
Rompecabezas (ver 2)
tablatura
Descubre más canciones de Los Concorde