Rompecabezas, Los Concorde (acordes) (ver 2)

Autor: d andres | 29064 visualizaciones



intro[aqui es con el bajo para que suene chido con la lira lo puse asi]
e|---------------------------------------------------------------|
B|---------------------------------------------------------------|
G|---------------------------------------------------------------|
D|-3-3-3-3-3-5h7---2-2-2-2-2-5h7-------------5h7-------------5h7-|
A|---------------------------------0-0-0-0-0-------0-0-0-0-0-----|
E|---------------------------------------------------------------|

1er verso igual que el intro [Y todo lo que nunca fue....]^
e|---------------------------------------------------------------|
B|---------------------------------------------------------------|
G|---------------------------------------------------------------|
D|-3-3-3-3-3-5h7---2-2-2-2-2-5h7-------------5h7-------------5h7-|
A|---------------------------------0-0-0-0-0-------0-0-0-0-0-----|
E|---------------------------------------------------------------|

pre-verso la nota se toca con un apague o sea [palm mute]

e|-----------------------------------------------------------|
B|------------------------------1-1-1-1-1-1-1-1-1-1-1-1-1-1--|
G|-2-2-2-2-2-2-2--2-2-2-2-2-2-2-2-2-2-2-2-2-2-2-2-2-2-2-2-2--|
D|-3-3-3-3-3-3-3--2-2-2-2-2-2-2------------------------------|
A|-----------------------------------------------------------|
E|-----------------------------------------------------------|
en esta parte tambien hay una melodia de fondo
e|----------------------------------------------------|
B|----------------------------------------------------|
G|--2-2-4h5--2^---2-2-4h5--2^---2-2-4h5---2-2-4h5--2^-|
D|---3-3-----------3-3-----------3-3-------3-3--------|
A|----------------------------------------------------|
E|----------------------------------------------------|

verso [y todo lo que nunca fue....]
e|-----------------------------------------------------------|
B|------------------------------1-1-1-1-1-1-1-1-1-1-1-1-1-1--|
G|-2-2-2-2-2-2-2--2-2-2-2-2-2-2-2-2-2-2-2-2-2-2-2-2-2-2-2-2--|
D|-3-3-3-3-3-3-3--2-2-2-2-2-2-2------------------------------|
A|-----------------------------------------------------------|
E|-----------------------------------------------------------|

precoro [y sin embargo vuelvo a empezar....]
e|-----------------------------------------------------------|
B|------------------------------1-1-1-1-1-1-1-1-1-1-1-1-1-1--|
G|-2-2-2-2-2-2-2--2-2-2-2-2-2-2-2-2-2-2-2-2-2-2-2-2-2-2-2-2--|
D|-3-3-3-3-3-3-3--2-2-2-2-2-2-2------------------------------|
A|-----------------------------------------------------------|
E|-----------------------------------------------------------|
en esta parte tambien hay una melodia de fondo
e|----------------------------------------------------|
B|----------------------------------------------------|
G|--2-2-4h5--2^---2-2-4h5--2^---2-2-4h5---2-2-4h5--2^-|
D|---3-3-----------3-3-----------3-3-------3-3--------|
A|----------------------------------------------------|
E|----------------------------------------------------|

coro se toca abajo-arriba-abajo-arriba-abajo[rapido]
[Hay complot de mujer....]
e|-1-1-1-1-1---1-1-1-1-1---5-5-5-5-5---5-5-5-5-5--|
B|-1-1-1-1-1---1-1-1-1-1---5-5-5-5-5---5-5-5-5-5--|
G|-2-2-2-2-2---2-2-2-2-2---5-5-5-5-5---5-5-5-5-5--|
D|------------------------------------------------|
A|------------------------------------------------|
E|------------------------------------------------|
en esta parte tambien hay una melodia pero se toca
pero con un buen de distorcion y solo en las partes de
[eres criminal y delatora a la vez....]
[cometen ese crimen que se llama mujer...]
e|---------------|
B|---------------|
G|---------------|
D|--3-3-3-5-7----|
A|---------------|
E|---------------|


2do verso [y siguee todo igual...]
e|-----------------------------------------------------------|
B|------------------------------1-1-1-1-1-1-1-1-1-1-1-1-1-1--|
G|-2-2-2-2-2-2-2--2-2-2-2-2-2-2-2-2-2-2-2-2-2-2-2-2-2-2-2-2--|
D|-3-3-3-3-3-3-3--2-2-2-2-2-2-2------------------------------|
A|-----------------------------------------------------------|
E|-----------------------------------------------------------|
en esta parte tambien hay una melodia de fondo
e|----------------------------------------------------|
B|----------------------------------------------------|
G|--2-2-4h5--2^---2-2-4h5--2^---2-2-4h5---2-2-4h5--2^-|
D|---3-3-----------3-3-----------3-3-------3-3--------|
A|----------------------------------------------------|
E|----------------------------------------------------|

pre-coro [y cuando pude estar seguro....]
e|-----------------------------------------------------------|
B|------------------------------1-1-1-1-1-1-1-1-1-1-1-1-1-1--|
G|-2-2-2-2-2-2-2--2-2-2-2-2-2-2-2-2-2-2-2-2-2-2-2-2-2-2-2-2--|
D|-3-3-3-3-3-3-3--2-2-2-2-2-2-2------------------------------|
A|-----------------------------------------------------------|
E|-----------------------------------------------------------|

2do coro[hay complot de mujer....]
e|-1-1-1-1-1---1-1-1-1-1---5-5-5-5-5---5-5-5-5-5--|
B|-1-1-1-1-1---1-1-1-1-1---5-5-5-5-5---5-5-5-5-5--|
G|-2-2-2-2-2---2-2-2-2-2---5-5-5-5-5---5-5-5-5-5--|
D|------------------------------------------------|
A|------------------------------------------------|
E|------------------------------------------------|
en esta parte tambien hay una melodia pero se toca
pero con un buen de distorcion y solo en las partes de
[eres criminal y delatora a la vez....]
[cometen ese crimen que se llama mujer...]
e|---------------|
B|---------------|
G|---------------|
D|--3-3-3-5-7----|
A|---------------|
E|---------------|


solo [la "v" significa vibrato]
e|-------------------|
B|-------------------|
G|-------7^---5v-----|se toca un buen de veces
D|---7-7----7--------|
A|-------------------|
E|-------------------|

final [hay complot de mujer....]
e|-------------------|
B|-------------------|
G|-------7^---5v-----|
D|---7-7----7--------|
A|-------------------|
E|-------------------|
esta vez se toca con el precoro
e|-----------------------------------------------------------|
B|------------------------------1-1-1-1-1-1-1-1-1-1-1-1-1-1--|
G|-2-2-2-2-2-2-2--2-2-2-2-2-2-2-2-2-2-2-2-2-2-2-2-2-2-2-2-2--|
D|-3-3-3-3-3-3-3--2-2-2-2-2-2-2------------------------------|
A|-----------------------------------------------------------|
E|-----------------------------------------------------------|

y por ultimo [con ritardando]
e|---------------------------------------------------------------|
B|---------------------------------------------------------------|
G|---------------------------------------------------------------|
D|-3-3-3-3-3-5h7---2-2-2-2-2-5h7-------------5h7-------------5h7-|
A|---------------------------------0-0-0-0-0-------0-0-0-0-0-----|
E|---------------------------------------------------------------|





Calificar esta versión:
Aviso: Este fichero es trabajo propio de su transcriptor y representa su interpretación personal de la canción. El material contenido en esta página es para exclusivo uso privado, por lo que se prohibe su reproducción o retransmisión, así como su uso para fines comerciales.
Más versiones de Rompecabezas, Los Concorde
Rompecabezas
acordes
Rompecabezas (ver 2)
acordes
Rompecabezas
tablatura
Rompecabezas (ver 2)
tablatura
Descubre más canciones de Los Concorde