El Perdedor, Liran'Roll (tablatura) (ver 2)

Autor: Anónimo | 32406 visualizaciones



                      Version Acústica

      Bm                                       Bm
Solo estoy                                 Viviré 
              G                                    G
Sentado en la esquina                      Solo de recuerdos
    A7      Bm       G A7                    A7      Bm    G   A7
Con un vaso de tu amor.                    Y cenizas de tu amor.
                                           
     Bm                                         Bm
Me dejas                                   Para ti 
       G                                               G 
Porque tu dices                            Solo fui en tu vida 
    A7      Bm   G     A7                           A7   Bm
Que ya tengo a quien amar.                 Un pobre loco perdedor 
                                           G             A7
        Bm                                 Perdedor para ti solo fui.
Tu te vas                                  
        G            A7                          Bm
Y yo me quedo solo y triste                Tratare
      Bm         G                                   G 
En un rincón sin tu amor                   De seguir mi vida
     A7                                      A7      Bm
Solo estoy.                                Y olvidar esta canción
                                                 G     A7 
CORO:                                      De mi dolor esta canción.
                                        
Ya lo se que tu estas en la estación       CORO:       
                                                                     
para largarte ya. (repite 2 veces)         Ya lo se que tu estas en la estación
                                           
                                           para largarte ya.(Repite 4 veces)



*CORO
     
    (4/4)
                 x2               x2              x2  
1ª ----------------|----------------|---------------||
2ª ----------------|----------------|---------------||
3ª ---7--7--7--7---|----------------|---------------||
4ª ---7--7--9--7---|---7--7--7--7---|---5--5--5--5--||
5ª ---5--5--5--5---|---7--7--9--7---|---5--5--7--5--||
6ª ----------------|---5--5--5--5---|---3--3--3--3--||
   
                                 G  A
   ----------------------------|------||
   ------------------------3---|------||     Nota: [/] Ligadura
   ------0--2--2--2/4--2---2---|------||
   ---4--------------------0---|------||
   ----------------------------|------||
   ----------------------------|------||


      *Solo:
      1ª-------------------------------------0---------------0--------
      2ª--2/3-0´-2/3-0--2/3-0---2/3-0---2-3-----3-2-----2-3-----3-2---
      3ª---------------------------------------------4----------------
      4ª--------------------------------------------------------------
      5ª--------------------------------------------------------------
      6ª--------------------------------------------------------------
 
        -----------------------------------------------0-0-0--5'--5-----
      ---------------------------------2-2-2--3-3-3-------------------
        -4-2--2/4--2/4--2--4-4-4----------------------------------------
        ----------------------------------------------------------------
        ----------------------------------------------------------------
        ----------------------------------------------------------------
                                                          x 19 
       5-5-5-5-5--5/7--5/7--5/7--5/7---5/7--5/7´--|--------------------
       -------------------------------------------|-2/3-0--------------
       -------------------------------------------|--------------------
       -------------------------------------------|--------------------
       -------------------------------------------|--------------------
       -------------------------------------------|--------------------

       --------0---------------0---------------------------------------
       ---2-3-----3-2-----2-3-----3-2----------------------------------
       ----------------4---------------4-2--2/4---2/4--2---4-4-4-------
       ----------------------------------------------------------------
       ----------------------------------------------------------------
       ----------------------------------------------------------------

       ----------------0-0-0--5'--5-5-5-5-5-5--5/7--5/7--5/7--5/7--5/7-
       --2-2-2--3-3-3--------------------------------------------------
       ----------------------------------------------------------------
       ----------------------------------------------------------------
       ----------------------------------------------------------------
       ----------------------------------------------------------------
                      x19
       --5/7´--|----------------0---------------0----------------------
       --------|-2/3-0-----2-3-----3-2-----2-3-----3-2-----------------
       --------|------------------------4---------------4-2--2/4-------
       --------|-------------------------------------------------------
       --------|-------------------------------------------------------
       --------|-------------------------------------------------------
                     Bm G A7
       ------------|--------||         Esto se toca despues de cada parrafo:
       ------------|--------||
       ---2/4--2---|--------||                1ª ------------0-----||
       ------------|--------||            2ª ------------2-----||
       ------------|--------||            3ª ------------2-----||
       ------------|--------||            4ª --------2---2-----||
                              5ª ---4--------0-----||
                              6ª ------------------||
 
 Transcrito por Ulises Said Arias Mendoza





Calificar esta versión:
Aviso: Este fichero es trabajo propio de su transcriptor y representa su interpretación personal de la canción. El material contenido en esta página es para exclusivo uso privado, por lo que se prohibe su reproducción o retransmisión, así como su uso para fines comerciales.
Más versiones de El Perdedor, Liran'Roll
El Perdedor
acordes
El Perdedor (ver 2)
acordes
El Perdedor (ver 3)
acordes
El Perdedor
tablatura
El Perdedor (ver 2)
tablatura
Descubre más canciones de Liran'Roll