El Perdedor, Liran'Roll (tablatura)

Autor: Anónimo | 44813 visualizaciones



hola banda hay les va esta rola del toño lira esta es
LA version original 100%

INTRODUCCION

1------------------------------------------------------------I
2--9SL2SL4---------------------------------------------------I
3--9SL2SL4---------------------------------------------------I
4-------------6-6--6-6-6-2---2--2-2-2-4---4--4-4-4-4----4----I
5-------------4-4--4-4-4-0---0--0-0-0-2---2--2-2-2-2----2----I
6------------------------------------------------------------I
       C#m
SOLO ESTOY
                 A
SENTADO EN LA ESQUINA
        B         C#m
CON UN VASO DE TU AMOR
     G#m       A      B
UO UO UO,OOH,OOH,UO OOH.

     C#m           A
ME DEJAS POR Q TUDICES
         B             C#m
QUE YA TENGO A QUIEN AMABA
     G#m         A       B
BA,BA,BA,BA,OOH OOH,UO OOH.

      C#m
TU TE VAS
          A            B
Y YO ME QUEDO SOLO Y TRISTE
        C#m          G#m
EN UN RINCON,SIN TU AMOR,
        A           B
SOLO ESTOY,UO OOH,OOH


RIFF 1


1-----------------------------I----------------------------I
2-----------------------------I----------------------------I
3--9--9---9--9--9--9---9--9---I----------------------------I
4--9--9--11--9--9--9--11--9---I--9--9---9--9--9--9---9--9--I
5--7--7---7--7--7--7---7--7---I--9--9--11--9--9--9--11--9--I
6-----------------------------I--7--7---7--7--7--7---7--7--I


1-------------------I----------------------------I---------I
2-------------------I----------------------------I---------I
3-------------------I------------4--4---4H6H4----I----4----I
4--7-7-7-7-7-7-7-7--I-------6--6-----------------I---------I
5--7-7-9-7-7-7-9-7--I--7--7----------------------I---------I
6--5-5-5-5-5-5-5-5--I----------------------------I---------I

       E           B
YA LO SE QUE TU ESTAS
         Am                  E
EN LA ESTACION PARA LARGARTE YA
       E          B
YA LO SE QUE TU ESTAS
         Am                  E
EN LA ESTACION PARA LARGARTE YA

SOLO

1-------------------------------------------------------------I
2--5-4-----------5H4---5H4---5H4---45--75---4----4------------I
3------6----66-------6-----6-----6-------------6--------------I
4-------------------------------------------------------------I
5-------------------------------------------------------------I
6-------------------------------------------------------------I

1-------------------------------------------------------------I
2-5-7--5-4----------------------------4-4-4-5-5-5-7-7-7-------I
3-----------6-4SL6--4SL6-4-4-4--6-6-6-------------------------I
4-------------------------------------------------------------I
5-------------------------------------------------------------I
6-------------------------------------------------------------I

1--4B------5--7--9-9-7SL9-7SL9-7SL9-7SL9----------------------I
2------4----------------------------------5PO4---5PO4-5PO4----I
3----------------------------------------------6-----6----6---I
4-------------------------------------------------------------I
5-------------------------------------------------------------I
6-------------------------------------------------------------I

1-------------------------------------------------------------I
2-5PO4-5PO4-5PO-5PO4--45--75--4----------4-5-7-5-----4--------I
3-----6----6---6----6-----------6-4-4SL6----------------------I
4-------------------------------------------------------------I
5-------------------------------------------------------------I
6-------------------------------------------------------------I

   C#m
VIVIRE
           A
SOLO DE RECUERDOS
    B             A
Y CENIZAS DE TU AMOR
     G#m      A       B
UO UO UO OHH OOH,OHH OHH

    C#m
PARA TI
                 A
SOLO FUI EN TU VIDA
          B        C#m
UN POBRE LOCO PERDEDOR
     G#m       A       B
PERDEDOR,PARA TI SOLO FUI

    C#m
TRATARE
             A
DE VIVIR MI VIDA
     B             A
Y OLVIDAR ESTA CANCION
       G#m            A
DE MI DOLOR ESTA CANCION
        B
UO OOH,OOH

RIFF 1

       E         B
YA LO SE Q TU ESTAS
         A
EN LA ESTACION.........

SIMBOLOGIA UTILIZADA
SL:LLIDE
PO:PULL OF
H:HAMMER ON
B:BEND

CUALQUIER DUDA HAY LES DEJO MI MSN BANDA [email protected]





Calificar esta versión:
Aviso: Este fichero es trabajo propio de su transcriptor y representa su interpretación personal de la canción. El material contenido en esta página es para exclusivo uso privado, por lo que se prohibe su reproducción o retransmisión, así como su uso para fines comerciales.
Más versiones de El Perdedor, Liran'Roll
El Perdedor
acordes
El Perdedor (ver 2)
acordes
El Perdedor (ver 3)
acordes
El Perdedor
tablatura
El Perdedor (ver 2)
tablatura
Descubre más canciones de Liran'Roll