El Perdedor, Liran'Roll (acordes) (ver 2)

Autor: Anónimo | 27907 visualizaciones

aa5bb5csosmdee5ggsosm


      Version corregida y aumentada
 
   Intro ver fig 1 

   C#m    
   SOLO ESTOY 
                     A                    
   SENTADO EN LA ESQUINA
            B         C#m
   CON UN VASO DE TU AMOR 
    G#m  A     B
   ooh  ooh  ooh.


   C#m
   ME DEJAS 
               A
   PORQUE TU DICES 
                B          C#m       
   QUE YA TENGO A QUIEN AMABA
     G#m   A      B
    aaah  oooh  oohh.


   C#m
   TU TE VAS 
              A              B 
   Y YO ME QUEDO SOLO Y TRISTE
    C#m                 G#m 
   EN UN RINCON SIN TU AMOR       
          A    B 
   SOLO ESTOY.


     E5               B5    
   YA LO SE QUE TU ESTAS 
     A5                        fig 2    
   EN LA ESTACION PARA LARGARTE YA.     repetir 2 veses

   
   C#m 
   VIVIRE 
                 A
   SOLO DE RECUERDOS
           B         C#m     
   Y CENIZAS DE TU AMOR
    G#m   A       B
   oooh  ooooh   oooh


   C#m
   PARA TI
                    A   
   SOLO FUI EN TU VIDA
            B          C#m       
   uN POBRE LOCO PERDEDOR
 
       G#          A        B      
   PERDEDOR PARA TI SOLO FUI.


    C#m 
   TRATARE 
                  A   
   DE SEGUIR MI VIDA
          B            G#m
   Y OLVIDAR ESTA CANCION
     A                 B
   DE MI DOLOR ESTA CANCION


   E5
   YA LO SE 
             B5           A5   
   QUE TU ESTAS EN LA ESTACION
                 Fig 2  
   PARA LARGARTE YA          repetir 4 veses

   Fig 1 intro
  E----------------------------------------------------
  A--------------------------------------------------- 
  D--9--2--4-4-4-4-4--2-2-2-2-2--0-4------------------
  G--9--2--4-4-4-4-4--2-2-2-2-2--0-4------------------
  B--9--2--4-4-4-4-4--2-2-2-2-2--0-4------------------
  E----------------------------------------------------          
           /repites esto 2 veces     Solo estoy.......

 
   Fig 2
 E----------------------------------------------------
 A-----7-7--11----------11--7------------------------
 D-------------9-9-11-9-------------------------------
 G-----------------------------------------------------
 B-----------------------------------------------------
 E----------------------------------------------------

 **** en las notas que llevan 5tas. debes de tocar 
      como si fuera un blues********

  ****nunca te olvidare sandra L.M.P.*************





Calificar esta versión:
Aviso: Este fichero es trabajo propio de su transcriptor y representa su interpretación personal de la canción. El material contenido en esta página es para exclusivo uso privado, por lo que se prohibe su reproducción o retransmisión, así como su uso para fines comerciales.
Más versiones de El Perdedor, Liran'Roll
El Perdedor
acordes
El Perdedor (ver 2)
acordes
El Perdedor (ver 3)
acordes
El Perdedor
tablatura
El Perdedor (ver 2)
tablatura
Descubre más canciones de Liran'Roll