Como Un Perro, Líbido (bajo)

Autor: Anónimo | 28735 visualizaciones



G|---------------------|
D|---------------------|
A|-----5--3--2---------|
E|--------------5--3---|

VERSOS Y CORO
G|----------------------------------------------------------------------|
D|----------------------------------------------------------------------|
A|-------------------------------------2-3-3-3-3-3-3-3-3-5-7-7-7-7-7-7--|
E|-3-3-3-3-3-3-3-3-3-4-5-5-5-5-5-5-5-5----------------------------------|

Discutes sin razón, quieres llevar el control
En tus manso no, no voy a bailar
Me haces sentir mal, luego yo pido perdón
Siendo tu la única culpable de la situación

No soy tu esclavo, sólo sé que yo te amo
No me trates como un perro, me quitaré sólo el sombrero

Y mis manos que harán, si tu piel me hace falta
Ya no tengo ni un amigo, Dios es mi único testigo

Qué puedo hacer para que me ames
Como yo te amo, como yo te amo
Qué puedo hacer para que me extrañes
Como yo te extraño, como yo te extraño


G|------------------------------------------------|
D|------------------------------------------------|
A|--7-7-7-7-7-7-7-7-7-7-7---3-3-3-3-3-3-3-3-3-3---|
E|------------------------------------------------|
              y haci los repites unas 7 o mas veces


Qué puedo hacer para que me ames
Como yo te amo, como yo te amo
Qué puedo hacer para que me extrañes
Como yo te extraño, como yo te extraño

No quiero escribir                  G|---------------------------|
Más canciones que te aturden        D|---------------------------|
Mis poemas no los lees              A|----------------3------7---|
Dime Dios qué me invento            E|--3------5-----------------|

Cómo te enamoraré
Si ya todo lo intentado
Dime qué es lo que faltado
Dime en qué te he defraudado


CUALQUIER DUDA ESCRIBANME A MI CORREO  pxndx_145@hotmail.com





Calificar esta versión:
Aviso: Este fichero es trabajo propio de su transcriptor y representa su interpretación personal de la canción. El material contenido en esta página es para exclusivo uso privado, por lo que se prohibe su reproducción o retransmisión, así como su uso para fines comerciales.
Más versiones de Como Un Perro, Líbido
Como Un Perro
acordes
Como Un Perro (ver 2)
acordes
Como Un Perro (ver 3)
acordes
Como Un Perro (ver 4)
acordes
Como Un Perro
tablatura
Como Un Perro
bajo
Como Un Perro (ver 2)
bajo
Como Un Perro
bateria
Como Un Perro
video guitarra
Descubre más canciones de Líbido