Whole Lotta Love, Led Zeppelin (tablatura) (ver 4)

Autor: vudu | 33207 visualizaciones

whole lotta love
intro

E|-------------------------------------------------|
B|-------------------------------------------------|
G|-------------------------------------------------|
D|-----------9-----9-----9-----9-----9-----9-----9-|
A|----5---5--7-----7-----7-----7-----7-----7-----7-|
E|-/7---7------xxx---xxx---xxx---xxx---xxx---xxx---|


You need coolin', baby, I'm not foolin',
I'm gonna send you back to schoolin',
Way down inside honey, you need it,
I'm gonna give you my love,
I'm gonna give you my love.

E|------------------------------------------------|
B|------------------------------------------------|
G|------------------------------------------------|
D|----------9-----9-----9-----9-----9-----9-----9-|
A|---5---5--7-----7-----7-----7-----7-----7-----7-|
E|-7---7------xxx---xxx---xxx---xxx---xxx---xxx---|

Wanna Whole Lotta Love
Wanna Whole Lotta Love
Wanna Whole Lotta Love
Wanna Whole Lotta Love
guitarra 2
E|-------------------------|
B|-------------------------|
G|-------------------------|
D|--77777s9-----9-----9----|
A|--55555s7-----7-----7----|
E|----------xxx---xxx------|

guitarra 1
E|-------------------------|
B|-------------------------|
G|---------9\--------------|
D|---------9\--------------|
A|-------------------------|
E|-------------------------|


You've been learnin', baby, I bean learnin',
All them good times, baby, baby, I've been yearnin',
Way, way down inside honey, you need it,
I'm gonna give you my love... I'm gonna give you my love.
Wanna Whole Lotta Love
Wanna Whole Lotta Love
Wanna Whole Lotta Love
Wanna Whole Lotta Love

solo 
guitarra 2
E|-------------------------|
B|-------------------------|
G|-------------------------|
D|--9-9--------------------|
A|--7-7--------------------|
E|-------------------------|

guitarra 1
E|----------12------------------------------|
B|-12----------15-12------------------------|
G|-14b16-------------15p14p12-14-12--14b16~-|
D|------------------------------------------|
A|------------------------------------------|
E|------------------------------------------|


guitarra 2
E|-------------------------|
B|-------------------------|
G|-------------------------|
D|--9-9--------------------|
A|--7-7--------------------|
E|-------------------------|

guitarra 1
E|---------------------------------------|
B|-----3---------------------------------|
G|-2/4?--4p2--0-2p0-0--2p0---------------|
D|-------------------------2p0-2p0-------|
A|---------------------------------2p0---|
E|-------------------------------------0-|

guitarra 2
E|-------------------------|
B|-------------------------|
G|-------------------------|
D|--9-9--------------------|
A|--7-7--------------------|
E|-------------------------|

guitarra 1
E|----------12-?-----------15-------|
B|-------12----15b17-15b17----15b17-|
G|-14b16----------------------------|  
D|----------------------------------| 
A|----------------------------------| 
E|----------------------------------|

guitarra 2
E|-------------------------|
B|-------------------------|
G|-------------------------|
D|--9-9--------------------|
A|--7-7--------------------|
E|-------------------------|

guitarra 1
E|--------------------------------| 
B|-17-20-20b24r20p17-17---20-17---| *
G|----------------------18--------|     
D|--------------------------------|   
A|--------------------------------|  
E|--------------------------------|

guitarra 2
E|-------------------------|
B|-------------------------|
G|-------------------------|
D|--9-9--------------------|
A|--7-7--------------------|
E|-------------------------|

guitarra 1
E|----19b21-19-18-17-15-17-15----|
B|-17-------------------------17-|    
G|-------------------------------|
D|-------------------------------|
A|-------------------------------|
E|-------------------------------|

guitarra 2
E|-------------------------|
B|-------------------------|
G|-------------------------|
D|--9-9--------------------|
A|--7-7--------------------|
E|-------------------------|

E|-------------------------------19-------|
B|-17-19-19b21----19b21-19b21-------17----|     
G|----------------------------------------|
D|----------------------------------------|
A|----------------------------------------|
E|----------------------------------------|


You've been coolin', baby, I've been droolin',
All the good times I've been misusin',
Way, way down inside, I'm gonna give you my love,
I'm gonna give you every inch of my love,
Gonna give you my love.
Wanna Whole Lotta Love
Wanna Whole Lotta Love
Wanna Whole Lotta Love
Wanna Whole Lotta Love

Way down inside... woman... You need... love
  
E|-------------------------|
B|-------------------------|
G|-------------------------|
D|--9--7-------------------|
A|--7--5-------------------|
E|-------------------------|


E|------------------------------------------------|
B|------------------------------------------------|
G|------------------------------------------------|
D|----------9-----9-----9-----9-----9-----9-----9-|
A|---5---5--7-----7-----7-----7-----7-----7-----7-|
E|-7---7------xxx---xxx---xxx---xxx---xxx---xxx---|

Shake for me, girl. I wanna be your backdoor man.
Keep it coolin', baby.

E|------------------------------------------------|
B|------------------------------------------------|
G|------------------------------------------------|
D|----------9-----9-----9-----9-----9-----9-----9-|
A|---5---5--7-----7-----7-----7-----7-----7-----7-|
E|-7---7------xxx---xxx---xxx---xxx---xxx---xxx---|

y asi hata que acave la rola.


"Whole Lotta Love" es un tema de la banda británica de Rock Led Zeppelin. Es tema que abre su segundo álbum Led Zeppelin II y fue el primer single de la banda y uno de los más exitosos. En el 2004 el tema fue elegido en el puesto número 75 en la lista de Las 500 mejores canciones de todos los tiempos de la revista Rolling Stone y, en marzo del 2005 mereció el lugar número 3 de la lista de los 100 mejores riff de guitarra revista Q Magazine[cita requerida]. La marca de guitarras Gibson colocó el solo de esta canción entre los mejores 50 solos de la historia.
Fue grabado en varios estudios de Nueva York y Los Ángeles durante una gira de conciertos de los Estados Unidos, y editado por Jimmy Page en los Olympic Studios en Londres.

Comentarios del colaborador: que buena rola

Calificar esta versión:
Aviso: Este fichero es trabajo propio de su transcriptor y representa su interpretación personal de la canción. El material contenido en esta página es para exclusivo uso privado, por lo que se prohibe su reproducción o retransmisión, así como su uso para fines comerciales.
Más versiones de Whole Lotta Love, Led Zeppelin
Whole Lotta Love
acordes
Whole Lotta Love
tablatura
Whole Lotta Love (ver 2)
tablatura
Whole Lotta Love (ver 3)
tablatura
Whole Lotta Love (ver 4)
tablatura
Whole Lotta Love
bajo
Whole Lotta Love (ver 2)
bajo
Whole Lotta Love (ver 3)
bajo
Descubre más canciones de Led Zeppelin