Whole Lotta Love, Led Zeppelin (bajo)

Autor: raton | 39471 visualizaciones



Whole lotta love



Words and Music by Jimmy Page, Robert Plant, John Paul Jones & John Bonham
Transcribed by Slowhand

Gtr I (E A D G) - 'Bass 32             '

 Intro
  Q=92
 4/4
  Gtr I
  W          W          H    E S S +S  S E   E. S E. S E. S E. S
|----------|----------|--------------------|----------------------|
|----------|----------|----------0-(0)---0-|----------------------|
|----------|----------|--------2-------2---|----------------------|
|----------|----------|--------------------|-0--0-0--0-0--0-0--0--|


                             1st Verse
  E. S E. S E S S +S  S E     E. S E. S E S S +S  S E
|-------------------------||--------------------------|
|---------------0-(0)---0-||o---------------0-(0)---0-|
|-------------2-------2---||o-------------2-------2---|
|-0--0-0--0-0-------------||--0--0-0--0-0-------------|


  E. S E. S E S S +S  S E  4x
|--------------------------||
|---------------0-(0)---0-o||
|-------------2-------2---o||
|-0--0-0--0-0--------------||


 Chorus
  E. S E. S S E S +S  E S   E. S E. S S E S +S  E S   E. S E. S S E S +S  E S
|-------------------------|-------------------------|-------------------------|
|---------------0-(0)---0-|---------------0-(0)---0-|---------------0-(0)---0-|
|-------------2-------2---|-------------2-------2---|-------------2-------2---|
|-0--0-0--0-0-------------|-0--0-0--0-0-------------|-0--0-0--0-0-------------|


                             2nd Verse
  E. S E. S S E S +S  E S     E. S E. S E S S +S  S E
|-------------------------||--------------------------|
|---------------0-(0)---0-||o---------------0-(0)---0-|
|-------------2-------2---||o-------------2-------2---|
|-0--0-0--0-0-------------||--0--0-0--0-0-------------|


  E. S E. S E S S +S  S E  4x
|--------------------------||
|---------------0-(0)---0-o||
|-------------2-------2---o||
|-0--0-0--0-0--------------||


                           Chorus
  E. S E. S E S S +S  S E   E. S E. S S E S +S  E S   E. S E. S S E S +S  E S
|-------------------------|-------------------------|-------------------------|
|---------------0-(0)---0-|---------------0-(0)---0-|---------------0-(0)---0-|
|-------------2-------2---|-------------2-------2---|-------------2-------2---|
|-0--0-0--0-0-------------|-0--0-0--0-0-------------|-0--0-0--0-0-------------|


  E. S E. S S E S +S  E S   E. S E. S S E S +S  E S   W          +W
|-------------------------|-------------------------|----------|--------|
|---------------0-(0)---0-|---------------0-(0)---0-|----------|--------|
|-------------2-------2---|-------------2-------2---|----------|--------|
|-0--0-0--0-0-------------|-0--0-0--0-0-------------|-0--------|-(0)----|


 Sound effects
  W          W          W          W
|----------|----------|----------|------|
|----------|----------|----------|------|
|----------|----------|----------|------|
|----------|----------|----------|------|


                                  Guitar Solo
  W          W          W          E S S Q  H
|----------|----------|----------|---------------|
|----------|----------|----------|---------------|
|----------|----------|----------|---------------|
|----------|----------|----------|-0---0---------|


  E S S Q  H      E S S Q  H      E S S Q  H      E S S Q  H
|---------------|---------------|---------------|---------------|
|---------------|---------------|---------------|---------------|
|---------------|---------------|---------------|---------------|
|-0---0---------|-0---0---------|-0---0---------|-0---0---------|


                          Verse 3
  E S S Q  E S S +S  S E   E. S E. S E S S +S  S E   E. S E. S E S S +S  S E
|------------------------|-------------------------|-------------------------|
|--------------0-(0)---0-|---------------0-(0)---0-|---------------0-(0)---0-|
|------------2-------2---|-------------2-------2---|-------------2-------2---|
|-0---0------------------|-0--0-0--0-0-------------|-0--0-0--0-0-------------|


  E. S E. S E S S +S  S E   E. S E. S E S S +S  S E   E. S E. S E S S +S  S E
|-------------------------|-------------------------|-------------------------|
|---------------0-(0)---0-|---------------0-(0)---0-|---------------0-(0)---0-|
|-------------2-------2---|-------------2-------2---|-------------2-------2---|
|-0--0-0--0-0-------------|-0--0-0--0-0-------------|-0--0-0--0-0-------------|


  E. S E. S E S S +S  S E   E. S E. S E S S +S  S E   E. S E. S E S S +S  S E
|-------------------------|-------------------------|-------------------------|
|---------------0-(0)---0-|---------------0-(0)---0-|---------------0-(0)---0-|
|-------------2-------2---|-------------2-------2---|-------------2-------2---|
|-0--0-0--0-0-------------|-0--0-0--0-0-------------|-0--0-0--0-0-------------|


                                                     Chorus
  E. S E. S E S S +S  S E   E. S E. S E S S +S  S E   E. S E. S S E S +S  E S
|-------------------------|-------------------------|-------------------------|
|---------------0-(0)---0-|---------------0-(0)---0-|---------------0-(0)---0-|
|-------------2-------2---|-------------2-------2---|-------------2-------2---|
|-0--0-0--0-0-------------|-0--0-0--0-0-------------|-0--0-0--0-0-------------|


  E. S E. S S E S +S  E S   E. S E. S S E S +S  E S   E. S E. S S E S +S  E S
|-------------------------|-------------------------|-------------------------|
|---------------0-(0)---0-|---------------0-(0)---0-|---------------0-(0)---0-|
|-------------2-------2---|-------------2-------2---|-------------2-------2---|
|-0--0-0--0-0-------------|-0--0-0--0-0-------------|-0--0-0--0-0-------------|


                         Breakdown
  W          +W           W          W
|----------|------------|----------|------|
|----------|------------|----------|------|
|----------|------------|----------|------|
|-0--------|-(0)--------|----------|------|


  W          W          H    Q  Q    W
|----------|----------|------------|------|
|----------|----------|------------|------|
|----------|----------|------------|-0----|
|----------|----------|---------0--|------|


                                                Outro
  +W           +W           H    E S S +S  S E   E. S E. S E S S +S  S E
|------------|------------|--------------------|-------------------------|
|------------|------------|----------0-(0)---0-|---------------0-(0)---0-|
|-(0)--------|-(0)--------|--------2-------2---|-------------2-------2---|
|------------|------------|--------------------|-0--0-0--0-0-------------|


  E. S E. S E S S +S  S E   E. S E. S E S S +S  S E   E. S E. S E S S +S  S E
|-------------------------|-------------------------|-------------------------|
|---------------0-(0)---0-|---------------0-(0)---0-|---------------0-(0)---0-|
|-------------2-------2---|-------------2-------2---|-------------2-------2---|
|-0--0-0--0-0-------------|-0--0-0--0-0-------------|-0--0-0--0-0-------------|


  E. S E. S E S S +S  S E   E. S E. S E S S +S  S E   E. S E. S E S S +S  S E
|-------------------------|-------------------------|-------------------------|
|---------------0-(0)---0-|---------------0-(0)---0-|---------------0-(0)---0-|
|-------------2-------2---|-------------2-------2---|-------------2-------2---|
|-0--0-0--0-0-------------|-0--0-0--0-0-------------|-0--0-0--0-0-------------|


  E. S E. S E S S +S  S E   E. S E. S E S S +S  S E   E. S E. S E S S +S  S E
|-------------------------|-------------------------|-------------------------|
|---------------0-(0)---0-|---------------0-(0)---0-|---------------0-(0)---0-|
|-------------2-------2---|-------------2-------2---|-------------2-------2---|
|-0--0-0--0-0-------------|-0--0-0--0-0-------------|-0--0-0--0-0-------------|


  E. S E. S E S S +S  S E   E. S E. S E S S +S  S E   E. S E. S E S S +S  S E
|-------------------------|-------------------------|-------------------------|
|---------------0-(0)---0-|---------------0-(0)---0-|---------------0-(0)---0-|
|-------------2-------2---|-------------2-------2---|-------------2-------2---|
|-0--0-0--0-0-------------|-0--0-0--0-0-------------|-0--0-0--0-0-------------|


  E. S E. S E S S +S  S E   E. S E. S E S S +S  S E   E. S E. S E S S +S  S E
|-------------------------|-------------------------|-------------------------*|
|---------------0-(0)---0-|---------------0-(0)---0-|---------------0-(0)---0-*|
|-------------2-------2---|-------------2-------2---|-------------2-------2---*|
|-0--0-0--0-0-------------|-0--0-0--0-0-------------|-0--0-0--0-0-------------*|


Duration Legend
---------------
W - whole; H - half; Q - quarter; E - 8th; S - 16th; T - 32nd; X - 64th; a - acciaccatura
+ - note tied to previous; . - note dotted; .. - note double dotted
Uncapitalized letters represent notes that are staccato (1/2 duration)
Irregular groupings are notated above the duration line
Duration letters will always appear directly above the note/fret number it represents the
duration for.  Duration letters with no fret number below them represent rests.  Multi-
bar rests are notated in the form Wxn, where n is the number of bars to rest for.  Low
melody durations appear below the staff

Tablature Legend
----------------
 h   - hammer-on
 p   - pull-off
 b   - bend
 pb  - pre-bend
 r   - bend release (if no number after the r, then release immediately)
 /  - slide into or out of (from/to "nowhere")
 s   - legato slide
 S   - shift slide
  - natural harmonic
[n]  - artificial harmonic
n(n) - tapped harmonic
 ~   - vibrato
 tr  - trill
 T   - tap
 TP  - trem. picking
 PM  - palm muting
n/  - tremolo bar dip; n = amount to dip
 n  - tremolo bar down
 n/  - tremolo bar up
/n  - tremolo bar inverted dip
 =   - hold bend; also acts as connecting device for hammers/pulls
 <>  - volume swell (louder/softer)
 x   - on rhythm slash represents muted slash
 o   - on rhythm slash represents single note slash






Calificar esta versión:
Aviso: Este fichero es trabajo propio de su transcriptor y representa su interpretación personal de la canción. El material contenido en esta página es para exclusivo uso privado, por lo que se prohibe su reproducción o retransmisión, así como su uso para fines comerciales.
Más versiones de Whole Lotta Love, Led Zeppelin
Whole Lotta Love
acordes
Whole Lotta Love
tablatura
Whole Lotta Love (ver 2)
tablatura
Whole Lotta Love (ver 3)
tablatura
Whole Lotta Love (ver 4)
tablatura
Whole Lotta Love
bajo
Whole Lotta Love (ver 2)
bajo
Whole Lotta Love (ver 3)
bajo
Descubre más canciones de Led Zeppelin