Whole Lotta Love, Led Zeppelin (tablatura) (ver 3)

Autor: xxblackxpinkxx | 37152 visualizaciones

"Whole Lotta Love", Led Zeppelin
_____________________________________
·Por Sebastián Ara.
·Bs. As., Argent., 2009
·Email MSN: playing.the.angel_@hotmail.com

INTRO:
e|--------------------------------------------- 
B|--------------------------------------------- 
G|--------------------------------------------- 
D|---0----0---9-----9-----9-----9-----9-----9-- 
A|---5----5---7-----7-----7-----7-----7-----7-- 
E|-7----7-------0-0---0-0---0-0---0-0---0-0---- 
[repite solo una vez más] 

RIFF PRINCIPAL: 
E|-------------------- 
B|-------------------- 
G|-------------------- 
D|---------9-----9---9 
A|---5---5-7-----7---7 
E|-7---7-----0-0---0-- 
[Repite así todos los versos y estribillos] 

SOLO: 
e|------------------------------------------------------------- 
B|10h12-15b!-15-12--------------------------------3------------ 
G|----------------15p14p12-14p12-14b----------2/4---4/2-0h2p0-- 
D|------------------------------------------------------------- 
A|------------------------------------------------------------- 
E|------------------------------------------------------------- 

e|----------------------------------------------- 
B|---------------------------------------20------ 
G|0h2p0----------------------16-19b!-19b!---19b!- 
D|------2p0h2p0----------/19--------------------- 
A|--------------2-------------------------------- 
E|----------------0------------------------------ 

e|----------------------------- 
B|17--20b!!!----17p15h20p17---- 
G|----------------------------- 
D|----------------------------- 
A|----------------------------- 
E|----------------------------- 

e|----------------19----- 
B|17-19--19b19b19b--17--- 
G|----------------------- 
D|----------------------- 
A|----------------------- 
E|----------------------- 
Listo, el solo es bastante fácil, creo que el más fácil de Led Zeppelin.
Calificar esta versión:
Aviso: Este fichero es trabajo propio de su transcriptor y representa su interpretación personal de la canción. El material contenido en esta página es para exclusivo uso privado, por lo que se prohibe su reproducción o retransmisión, así como su uso para fines comerciales.
Más versiones de Whole Lotta Love, Led Zeppelin
Whole Lotta Love
acordes
Whole Lotta Love
tablatura
Whole Lotta Love (ver 2)
tablatura
Whole Lotta Love (ver 3)
tablatura
Whole Lotta Love (ver 4)
tablatura
Whole Lotta Love
bajo
Whole Lotta Love (ver 2)
bajo
Whole Lotta Love (ver 3)
bajo
Descubre más canciones de Led Zeppelin