El Sol No Regresa, La 5a. Estación (bajo) (ver 2)

Autor: Anónimo | 23285 visualizaciones

INTRO

  EL TETALLE EES QUE EMPIEZA COMO BALADA RANCHERA
 ACORDES  D#,G#,A#
G)----------------------------------------------------------------------
D)----------------------------------------------------------------------
A)--6---6----------------------6----6-----------------------------------
E)-----6-----4---4----6---4--------6------------------------------------
B)--------------4--------6----------------------------------------------

 ACORDES G#,A#,D#,C
G)----------------------------------------------------------------------
D)----------------------------------------------------------------------
A)--------------------------------6--6--66-6666--3--3--33-3333----------
E)--4--4--44-4444--6--6--66-6666----------------------------------------
B)----------------------------------------------------------------------

 ACORDES  G#,A#,D#
G)----------------------------------------------------------------------
D)----------------------------------------------------------------------
A)--------------------------------6--6--66------------------------------
E)--4--4--44-4444--6--6--66-6666----------------------------------------
B)----------------------------------------------------------------------

  VERSO 1
 HACE DIAS PERDI
 ACORDES D#,G#
G)----------------------------------------------------------------------
D)----------------------------------------------------------------------
A)----------6--6--66-6666--6--6--66--6666-------------------------------
E)-----------------------------------------4--4--44-4444--4--4--44-4444-
B)----------------------------------------------------------------------


 ACORDES  A#,G#,D#
G)----------------------------------------------------------------------
D)----------------------------------------------------------------------
A)-------------------------------6--6--66-6666--------------------------
E)-6--6--66-6666--4--4--44-4444-----------------------------------------
B)----------------------------------------------------------------------

  NO ES QUE SEA EL ALCOHL LLEVA UN CILENCIO
ACORDES D#,G#,A#
G)----------------------------------------------------------------------
D)----------------------------------------------------------------------
A)--6--6--66-6666-------------------------------------------------------
E)---------------------4--4--44-4444--4--4--44-4444--6--6--66-6666------
B)----------------------------------------------------------------------


ACORDES  G#,D#
G)----------------------------------------------------------------------
D)----------------------------------------------------------------------
A)-----------------6--6--66-6666/14-14-14-14----------------------------
E)--4--4--44-4444-------------------------------------------------------
B)----------------------------------------------------------------------

  CORO 1
   HOY TE INTENTO CONTAR
 ACORDES  G#,A#,D#,C
G)----------------------------------------------------------------------
D)----------------------------------------------------------------------
A)--------------------------------6--6--66-6666--3--3--33-3333----------
E)--4--4--44-4444--6--6--66-6666----------------------------------------
B)----------------------------------------------------------------------


 ACORDES  G#,A#,D#,
G)----------------------------------------------------------------------
D)----------------------------------------------------------------------
A)--------------------------------6--6--66-6666/14-14-14-14-------------
E)--4--4--44-4444--6--6--66-6666----------------------------------------
B)----------------------------------------------------------------------

  HOY LOS BUENOS RECUERDOS
 ACORDES   G#,A#,D#,C
G)----------------------------------------------------------------------
D)----------------------------------------------------------------------
A)--------------------------------3--3--33-3333--3--3--33-3333----------
E)--4--4--44-4444--6--6--66-6666----------------------------------------
B)----------------------------------------------------------------------

 AL FINAL DE ESTE ACORDE SE QUEDA EN SILENCIO EL BAJO
 ACORDES G#,A#,D#
G)----------------------------------------------------------------------
D)----------------------------------------------------------------------
A)--------------------------------6--6--66-6666-------------------------
E)--4--4--44-4444--6--6--66-6666----------------------------------------
B)----------------------------------------------------------------------

  VERSO 2
   SUEÑOS DE ABITACION
 ACORDES  D#,G#
G)----------------------------------------------------------------------
D)----------------------------------------------------------------------
A)----------6--6--66-6666--6--6--66-6666--------------------------------
E)----------------------------------------4--4--44-4444--4--4--44-4444--
B)----------------------------------------------------------------------

  ACORDES  A#,G#,D#
G)----------------------------------------------------------------------
D)----------------------------------------------------------------------
A)------------------6--6--66-6666---------------------------------------
E)--6/18/4---4/14/4-----------------------------------------------------
B)----------------------------------------------------------------------

  RUEDAN POR EL COLCHON
ACORDES D#,G#
G)----------------------------------------------------------------------
D)----------------------------------------------------------------------
A)--6--6--66-6666/18/6--6--66-6666--------------------------------------
E)----------------------------------4--4--44-4444--4--4--44-4444--------
B)----------------------------------------------------------------------

ACORDES  A#,D#
G)----------------------------------------------------------------------
D)----------------------------------------------------------------------
A)------------------6--6--66-6666/14------------------------------------
E)--6/18/4--4/14/4------------------------------------------------------
B)----------------------------------------------------------------------

 CORO 2

  HOY TE INTENTO CONTAR
ACORDES   G#,A#,D#,C
G)----------------------------------------------------------------------
D)----------------------------------------------------------------------
A)--------------------------------6--6--66-6666--3--3--33-3333----------
E)--4--4--44-4444--6--6--66-6666----------------------------------------
B)----------------------------------------------------------------------

ACORDES  G#,A#,D#
G)----------------------------------------------------------------------
D)----------------------------------------------------------------------
A)--------------------------------6--6--66-6666/14-14-14-14-------------
E)--4--4--44-4444--6--6--66-6666----------------------------------------
B)----------------------------------------------------------------------

  HOY LOS BUENOS RECUERDOS
  ACORDES  G#,A#,C
G)----------------------------------------------------------------------
D)----------------------------------------------------------------------
A)--------------------------------3--3--33-3333--3--3--33-3333----------
E)--4--4--44-4444--6--6--66-6666----------------------------------------
B)----------------------------------------------------------------------

 ACORDES G#,A#,C
G)----------------------------------------------------------------------
D)----------------------------------------------------------------------
A)--------------------------------3--3--33-3333--3--3--33-3333----------
E)--4--4--44-4444--6--6--66-6666----------------------------------------
B)----------------------------------------------------------------------


 SOLO DE GUITARRA
  C,
G)----------------------------------------------------------------------
D)----------------------------------------------------------------------
A)--------------------------------3--3--33-3333--3--3--33-3333----------
B)----------------------------------------------------------------------

ACORDES G#,A#
                                .  PALM   MUTING
G)------------------------------.---------------------------------------
D)------------------------------.---------------------------------------
A)------------------------------.---------------------------------------
E)--4--4--44-4444--6--6--66-6666.--6-6-6-6-6-6-6------------------------
B)------------------------------.---------------------------------------
                                .

  CORO 3

HOY TE INTENTO CONTAR
 ACORDES G#,A#,D#,C
G)----------------------------------------------------------------------
D)----------------------------------------------------------------------
A)--------------------------------6--6--66-6666--3--3--33-3333----------
E)--4--4--44-4444--6--6--66-6666----------------------------------------
B)----------------------------------------------------------------------

ACORDES   G#,A#,D#
G)----------------------------------------------------------------------
D)----------------------------------------------------------------------
A)--------------------------------6--6--66-6666/14-14-14-14-------------
E)--4--4--44-4444--6--6--66-6666----------------------------------------
B)----------------------------------------------------------------------

  HOY LOS BUENOS RECUERDOS
 ACORDES  G#,A#,C
G)----------------------------------------------------------------------
D)----------------------------------------------------------------------
A)--------------------------------3--3--33-3333--3--3--33-3333----------
E)--4--4--44-4444--6--6--66-6666----------------------------------------
B)----------------------------------------------------------------------

 ACORDES   G#,A#,C
G)----------------------------------------------------------------------
D)----------------------------------------------------------------------
A)--------------------------------3--3--33-3333--3--3--33-3333----------
E)--4--4--44-4444--6--6--66-6666----------------------------------------
B)----------------------------------------------------------------------

 Y TRAS VARIOS TEQUILAS
  G#,A#
G)----------------------------------------------------------------------
D)----------------------------------------------------------------------
A)----------------------------------------------------------------------
E)-------------------4---------6----------------------------------------
B)----------------------------------------------------------------------

 ACORDES B,G#,A#,D#,C
G)----------------------------------------------------------------------
D)----------------------------------------------------------------------
A)-14-14-14-14------------------------------6--6--66-6666--3--3--33-3333
E)-------------4--4--44-4444--6--6--66-6666-----------------------------
B)----------------------------------------------------------------------

  Y TRAS VARIOS TEQUILAS
 ACORDES G3,A#,D#
G)----------------------------------------------------------------------
D)----------------------------------------------------------------------
A)--------------------------------6--6--66------------------------------
E)--4--4--44-4444--6--6--66-6666----------------------------------------
B)----------------------------------------------------------------------


 EL FINAL ES COMO CORIDO NORTEÑO
 ACORDES G#,A#,D#,C#,G#,A#,D#
G)----------------------------------------------------------------------
D)--6-6-678-8-8---------------6-6-678-8-654-----------------------------
A)---6-------8--876-6-654-4-45-6-----8-----654-6--6---------------------
E)-----------------6-----4----------------------6-----------------------
B)----------------------------------------------------------------------

           FIN......


BUENO ES PERO QUE LES AHIA SALIDO BIEN LA ROLA CUAL QUIER DUDA O
SUGERIENSIA COMONIQUENMELO O AL GUNA ROLA QUE QUIERAN QUE SAQUE

BUENO SOY RICARDO ZAROTE MARTINEZ. DE CELAYA GUANAJUATO

MI MAIL ES
HIELO_HIELO22@HOTMAIL.COM

NO ESTAMOS BIENO
 BYE
Calificar esta versión:
Aviso: Este fichero es trabajo propio de su transcriptor y representa su interpretación personal de la canción. El material contenido en esta página es para exclusivo uso privado, por lo que se prohibe su reproducción o retransmisión, así como su uso para fines comerciales.